» » »

Kane, Waiting Waiting Bass tabs (ver.1)

Artists:  A B C D E F G H I J K L M N O P Q R S T U V W X Y Z # 

Waiting Waiting Bass tabs (ver.1)

Kane Tabs
 Rating:
4/5 (4 votes)
Waiting Waiting lessons Tabs too difficult? Try these video lessons and learn fast
                Kane

Riff 1 
G|------------------------------------|2x|---------|
D|------------------------------------|  |p5-------|
A|------------------------------------|  |---------|
E|h0h0-----h0h0-----h0h0-----h0h0-----|  |---------|

Riff 2
G|------------------------------------|2x
D|------------------------------------|
A|------------------------------------|
E|h0h0-----h0h0-----h0h0-----h0h0-----|

Riff 3
G|------------------------------------|
D|----5---5------2---2----------------|
A|---------5----5-----3----3-5--------|
E|------------------------------------|

Riff 4
G|--------|4x
D|--------|
A|--------|
E|4—3—4—0-|

Riff 5
G|-------------------------|2x
D|-------------------------|
A|7777777666666555555444444|
E|-------------------------|

Riff 3

Riff 4 (8x)

Riff 5 (2x)

Riff 6
G|------------------------------------|2x
D|------------------------------------|
A|777777999999101010101010121212121212|
E|------------------------------------|

Bass solo
G|--------------|9x  
D|--------------|
A|-----5-11-----|    *(A –-11— Is twice 1, not eleven)
E|00204-4--30204|

Riff 5 (2x)
Short break
Riff 5 (3x)

G|-----------------------------------|
D|----5---5-----2---2----------------|
A|---------5---5-----3----321-5------|
E|---------------------------3-------|

Riff 4 (4x)

G|-----------------------------------|
D|----5---5-----2---2----------------|
A|---------5---5-----3----321-5------|
E|---------------------------3-------|

Riff 4 (8x)

Its a really cool song to play.
Its my very first tab so don’t blame me if its a bit wrong, mail me if its wrong or if you have any comments.
            
Submit corrections

comments powered by Disqus
↑ Back to top | Kane Bass for Waiting Waiting. Lyrics for acoustic guitar and electric guitar. Tablatures and chords are parodies/interpretations of the original songs. You may use it for private study, scholarship, research or language learning purposes only