» » »

Let It Be Tabs (ver.1)

Artists:  A B C D E F G H I J K L M N O P Q R S T U V W X Y Z # 

Let It Be Tabs (ver.1)

Kane
Rating:
5/5 (1 vote)

Hard to play? Try these video lessons and learn fast.
                Intro] (Flute, Riff1)
E Bsus2 Asus2 E*
E Bsus2 Asus2 (pick)
E Bsus2 Asus2 E*
E Bsus2 Asus2 (strum) [nc]

Riff1 Intro/verse
eb---------------------------------------------------|
Bb-------0-----------2-----------0-----------0-------|
Gb-----1---1-------4---4-------2---2---1---1---1-----|
Db---2-------2---4-------4---2-------2---2-------2---|
Ab-------------2-----------0-------------------------|
Eb-0-------------------------------------------------|
E Bsus2 Asus2 E*

eb-------------------------------------0-------------|
Bb-------0-----------2-----------0-----------0-------|
Gb-----1---1-------4---4-------2---2-----------------|
Db---2-------2---4-------4---2-------2---------------|
Ab-------------2-----------0-------------------------|
Eb-0-------------------------------------------------|
E Bsus2 Asus2 (pick)

eb-------------------------0-------------------------|
Bb-------0-----------2-----0-------------------------|
Gb-----1---1-------4---4---2-------------------------|
Db---2-------2---4-------4-2-------------------------|
Ab-------------2-----------0-------------------------|
Eb-0-------------------------------------------------|
E Bsus2 Asus2 (strum)

[Verse1]
[nc] E Bsus2 Asus2
Well the answer is always the same__, won't you please_____ just let it be__
E*
Cause I've been there -
E Bsus2 Asus2 (pick)
and all I can say__ It that it slips____ away from me__e_. With the memory of
E Bsus2 Asus2
Yesterday's grace__, She spins____ away from me,
Bsus2 Asus2 E* (Riff2)
So I can___ go on___.
[nc] E Bsus2 Asus2
As cold as the void of the night__, The dark___ surrounding me.
E*
She leaves me there -
E Bsus2 Asus2 (pick)
every ti__i_me__ As alone___ as I can be. And I drift with the thought of
E Bsus2 Asus2
her eyes. She's all____ that I can see,
Bsus2 Asus2 E* (Riff2)
But I will___ go on___.

Riff2 End of verse
eb--------------------------------------------|
Bb-------2-----------0-----------0------------|
Gb-----4---4-------2---2---1---1---1---1h2~~--|
Db---4-------4---2-------2---2-------2--------|
Ab-2-----------0------------------------------|
Eb--------------------------------------------|

[Chorus1]
Bsus2 C#m
Every long__ night, every whisper__, Every song_ that never saw_ it coming_,
Asus2 (pick)
And she says it's oh so right. (It's oh so right)
Bsus2 C#m
Every cold__ night, every shiver__, Every time__ I didn't feel__ it coming,
Asus2 (pick)
And she says it's oh so right.

[nc] E Bsus2
As heartless and cruel as can be__, She moves_____
Asus2
away from me, Still I need to be hers
E Bsus2
every ti__i__me__, with all_____
Asus2
that I can be, as she calls in the deep of the
E Bsus2 Asus2
night__, she takes all____ I've got from me
Bsus2 Asus2 E* (Riff2)
So I can___ go on___.

[Chorus2]
Bsus2 C#m
Every long__ night, every whisper__, Every song_ that never saw_ it coming_,
Asus2 (pick)
Baby don't you know that is it NOT alright, no it's not alright, no, no, no
Bsus2 C#m
Every cold__ night, every shiver__, every SILENT SCREAM and she never listens
Asus2 (pick)
Well it's NOT alright no it's not alright no, no, no, no no

E Bsus2
She rides with the gods of the night___ She rules_____
Asus2
the tides in me She crushes the waves with
E Bsus2
her sigh___ She... oh lord__ she becomes
Asus2
a part of me But her care is as sharp as a
E Bsus2 Asus2
knife now I'll say, for how can she step away from me,
Bsus2 Asus2
How can you just walk away from me oh lord no no no no

[Chorus3]
Bsus2 C#m
Every cold__ night, every whisper__, every SILENT SCREAM and you never listen
Asus2
And you say what? It's al__right__ Well, it's not alright no oh!
Bsus2 C#m
Every last__ time, every shiver__ Every dirty game Well it JUST___ isn't
Asus2
right no it JUST___ isn't right

[Outro]
[nc] E Bsus2 Asus2
She wakes at the dawn of the day__ And takes____ my heart from me
E*
Leaves me with nothing
E Bsus2 Asus2 (pick)
to say____ No____thing left for me - but the fever of
E Bsus2 Asus2 (pick)
final goodbyes__ She spins____ away from me
Bsus2 Asus2 E* (Riff2)
So I can___ go on___.

Bsus2 E Bsus2 Asus2 (pick)
I can___ go on__

E (strum)

Chords:
E 022100
Bsus2 x24422
Asus2 x02200
C#m x46654
Esus4 022200
            
Hard to play? Try these video lessons and learn fast. | Correct




comments powered by Disqus
↑ Back to top | Tablatures and chords are parodies/interpretations of the original songs. You may use it for private study, scholarship, research or language learning purposes only