>
 >
Dead End

Dead End Guitar Tabs

Kane - Dead End chords, tabs, tablatures, lyrics

Guitar lessons | Add/correct | Request | Top 50 tabs Artists:  A B C D E F G H I J K L M N O P Q R S T U V W X Y Z 0-9

Dead End Guitar Tabs – Kane

CD, Sheet music, Poster

Do you like Dead End? Share with your friends now
Tabs
Chords:

C 335553
G 355433
Am 577555
F 133211 


Note:

Eb Ab Db Bb Eb, half step down


[riff 1]

eb --------------------------------------------------------------------------|
Bb --------------------------------------------------------------------------|
Gb --------------0--------------------------0--------------------------------|
Db -------0------------0h2------------0------------0h2------------2h3--------|
Ab 2h3--------------------------2h3--------------------------3------------3--|
Eb --------------------------------------------------------------------------|


[riff 2]

eb ---------------------------------------------------------------|
Bb ---------------------------------------------------------------|
Gb --------------0---------------------------------0--------------|
Db ---------------------3---------------------------------3-------|
Ab -------3-------------------3------------3-------------------3--|
Eb 1---------------------------------1----------------------------|

[riff 3]

eb ------------------------------------------|
Bb ------------------------------------------|
Gb --------------0---------------------------|
Db ---------------------3--------------------|
Ab -------3-------------------3--------------|
Eb 1--------------------------------------1--|


[riff 4]

eb ---------------------------------------------------------|
Bb ---------------------0--------------------------0-----1--|
Gb --------------0--------------------------2---------------|
Db -----------------------------------2---------------------|
Ab -------2-------------------0-----------------------------|
Eb 3--------------------------------------------------------|


[intro]
Riff 1 Riff 2 Riff 1 Riff 3

Riff 1 Riff 2
Stay tonight , let me hold you like I never did before.
Riff 1 Riff 2
Take my arms, let me hold you like I never did before

Riff 4 Riff 2
And I should have tried just to talk about this, waiting, ending
Riff 4 Riff 3
And I should have tried just to let you know that I'm, still here
Riff 1 Riff 2
So before you let me go

Riff 1 Riff 2
Take my hands, let me touch you like I never did before
Riff 1 Riff 2
Take my heart and let me love you like I never did before
Like I never did before

Riff 4 Riff 2 
And I should have tried just to talk about it, waiting, ending
Riff 4 Riff 2 
And I should have tried just to let you know that I'm still here


[riff 5] play during chorus

eb 3--------3-------------------------------------------3--------3--------3-----3-----3h5p3--|
Bb ---1--------1-----0-----1-----3-----1-----0----------1--------1--------1------1-----------|
Gb ------------------------------------------------------------------------------------------|
Db ------------------------------------------------------------------------------------------|
Ab ------------------------------------------------------------------------------------------|
Eb ------------------------------------------------------------------------------------------|


[chorus]
C
But we waste it every time,
G Am
Now my heart is on the line,
G F
And we see ourselfs no more.
C
When we're closing every door,
G Am
It's so much harder than before,
F
So before you let me go
C
Before you let me go


[riff 6]

eb ------------------------------------------------------1--0--|
Bb -------1-----1h3-----1-----1h3-----1-----3------------3--1--|
Gb -------0-----0--------0-----0--------0----------------------|
Db ------------------------------------------------------------|
Ab 3-----------------------------------------------------------|
Eb ------------------------------------------------------------|


[riff 7]

eb -------------------------------------------------1---0------|
Bb -------1-----1h3-----1-----1h3---1---3-----------3---1------|
Gb -------2-----2--------2-----2------2------------------------|
Db ------------------------------------------------------------|
Ab ------------------------------------------------------------|
Eb 1-----------------------------------------------------------|


Riff 6 Riff 7

C (Riff 6)
Save the dance and let me spin you,
F (Riff 7)
Till your world is turning round and round,

Round and round, Round and round
C (Riff 6)
Save the chance and let me show you,
F (Riff 7) 
Just like You need a little more,
G
Just like you need a little more.
Am F
And I should have tried just to talk about it, waiting , ending
G Am F
I should have tried just to let you know that I'm still here.


[chorus] (Riff 5)
C
But we waste it every time,
G Am
Now my heart is on the line,
G F
And we see ourselfs no more.
C
When we're closing every door,
G Am
It's so much harder than before,


[solo] something like this 

eb 0------------------------------------------------------------------0--|
Bb -------3-----1-----0-----4b-------1-----1-----0h1p0-------------------|
Gb ---------------------------------------------------------------2------|
Db ----------------------------------------------------------------------|
Ab ----------------------------------------------------------------------|
Eb ----------------------------------------------------------------------|

F
So before you let me go
C
Before you let me go


[riff 8]

eb 15---------15---------15-------------------------------15------15-----15----------15h17p15--|
Bb -----13----------13---------13-12-13-15-13-12--------13------13------13---------------------|
Gb --------------------------------------------------------------------------------------------|
Db --------------------------------------------------------------------------------------------|
Ab --------------------------------------------------------------------------------------------|
Eb --------------------------------------------------------------------------------------------|


[chorus] (Riff 8)
C
But we waste it every time,
G Am
Now my heart is on the line,
G F
And we see ourselfs no more.
C
When we're closing every door,
G Am
It's so much harder than before,

C (Riff 5)
But we waste it every time,
G Am
Now my heart is on the line,
G F
And now we bruise with every step.
C (Riff 5)
When we're closing every door,
G Am 
Can we make it easier,
F
Some time?
F
Some time.





Comments


Popular Kane tabs & chords
Chase Chords
Chase 1 Chords
Rain Down On Me 1 Chords
Rain Down On Me 2 Chords
Shot Of A Gun 4 Chords
Where Do I Go Now Tabs
Chase Ukulele
Let It Be Ukulele
Shot Of A Gun Ukulele
Something To Say Ukulele


Song lyrics



↑ Back to top | Tablatures and chords are parodies/interpretations of the original songs. You may use it for private study, scholarship, research or language learning purposes only
© 2014 AZChords.com Contact us | Privacy policy | DMCA | Add/correct tabs | Request tabs | Top 50 tabs