>
 >
Tsinelas

Tsinelas Guitar Tabs

Kamikazee - Tsinelas chords, tabs, tablatures, lyrics

Guitar lessons | Add/correct | Request | Top 50 tabs Artists:  A B C D E F G H I J K L M N O P Q R S T U V W X Y Z 0-9

Tsinelas Guitar Tabs – Kamikazee

CD, Sheet music, Poster

Do you like Tsinelas? Share with your friends now
Tabs
BAND>KAMIKAZEE[2003 BAND OF THE YEAR]I HOPE
CD>KAMIKAZEE[2003 ALBUM OF THE YEAR]I HOPE
TRANSCRIBED>JEFFREY A. CAMPOSANO
AGE>17
PHONE>780-93-88/FOR COMMENT/CORRECTION AT QUESTION
MGA PRE THIS IS MY ACOUSTIC ARRANGEMENT WLA KSI ME ELECT.GTR.EH
DONT WORRY SOUNDS GOOD NMAN EH AND I HOPE THIS TAB. WILL HELP YOU TO DO OTHERE
VERSION......KICK-ASS......KAMI-QUEZO......................
             

STANDARD TUNNING

Intro:

Guitar 1            Guitar 2
-----------------   ----------------------------------
-----------------   ----------------------------------
-----------------   ----------------------------------
-----------------4x ----------------------------------4x
-0-1-2-0-2-3-0-0-   ----------------------------------
-0-1-2-0-2-3-0-0-   -0-1h2-0-2h3-0-1h2-0-2h3-0-3-4-3--
 - - - - - - -       -     -     -     -     -

*note - the riffs look like a drop d chord but it isn't
        it is an inverted chord

Guitar 1 & 2
----------------------------------
----------------------------------
----------------------------------
----------------------------------
-0-1h2-0-2h3-0-1h2-0-2h3-0-3-4-3--
-0-1h2-0-2h3-0-1h2-0-2h3-0-3-4-3--
 -     -     -     -     - - - -


VERSE
GTR.1
|------2------|------3------|------2-------|--------3--------
|------2------|------3------|------2-------|--------3--------
|--4-------4-4|--5-------5-5|--4-------4-4-|----5-------5----
|--4-------4-4|--5-------5-5|--4-------4-4-|----5-------5---- 2X
|--2-------2-2|--3-------3-3|--2-------2-2-|--3-3-------3----
|-------------|-------------|--------------|----3------------
   ASAN......  KAYA.......   DITO.....KA    NINA...........
  
GTR.2  
|-----x-x-x-x-x|-----x-x-x-x-x| 
|----x-x-x-x-x-|----x-x-x-x-x-|
|--4-----------|--5-----------|
|--4-----------|--5-----------| 2X  
|--2-----------|--3-----------| 
|--------------|--------------| 

PRE-CHORUS
GTR.1
|--------------------- ---------------- ----------------------
|-------------------------------------------------------------
|------4---4---4-------5---5---5-------4---4---4-------5---5--
|----4---4---4-------5---5---5-------4---4---4-------5---5----
|--2-------------2-3-------------3-2-------------2-3----------
|-------------------------------------------------------------

|-----------------------
|-----------------------
|--3-3-3-3-3-3-3-3------
|--3-3-3-3-3-3-3-3------ 
|--5-5-5-5-5-5-5-5------
|-----------------------

GTR.2

|-----x-x-x-x-x|-----x-x-x-x-x---
|----x-x-x-x-x-|----x-x-x-x-x----
|--4-----------|--5--------------
|--4-----------|--5-------------- X2
|--2-----------|--3--------------
|--------------|-----------------


CHORUS

Nasan na Chinelas ko!!!
----------------------------------
----------------------------------
----------------------------------
----------------------------------4x
-0-1h2-0-2h3-0-1h2-0-2h3-0-3-4-3--
-0-1h2-0-2h3-0-1h2-0-2h3-0-3-4-3--
 -     -     -     -     - - - -

Chinelas ko!!! Chinelas ko!!!
----------------------------------
----------------------------------
----------------------------------
----------------------------------4x
-0-1-2-0-2-3-0-1-2-0-2-3-0-3-4-3--
-0-1-2-0-2-3-0-1-2-0-2-3-0-3-4-3--
 - - - - - - - - - - - - - - - -


REPEAT>VERSE
REPEAT>PRE-CHORUS
REPEAT>CHORUS

BRIDGE
Nasan na...
-------------
-------------
--------7~~~~6x
-4~~~~--7~~~~
-4~~~~--5~~~~
-2~~~~-------

Repeat Chorus

_end_

GTR.2
  f.2            f.3
|---x-x-x-x-x-x-|---x-x-x-x-x-x------
|--x-x-x-x-x-x-x|--x-x-x-x-x-x-x-----
|---------------|-------------------- 
|---------------|-------------------- 8X
|---------------|--------------------
|---------------|--------------------

REPEAT>CHORUS   end...





Comments


Popular Kamikazee tabs & chords
A.I.D.S Bass Tabs
First Day High Bass Tabs
Lucky 1 Chords
Darna Tabs
Dejame Ser Tabs
Girlfriend Tabs
Huling Sayaw 3 Tabs
Wo-oh 1 Tabs
Changes Ukulele
Chicksilog Ukulele


Song lyrics



↑ Back to top | Tablatures and chords are parodies/interpretations of the original songs. You may use it for private study, scholarship, research or language learning purposes only
© 2014 AZChords.com Contact us | Privacy policy | DMCA | Add/correct tabs | Request tabs | Top 50 tabs