>
 >
Sobrang Init

Sobrang Init Bass Tabs

Kamikazee - Sobrang Init chords, tabs, tablatures, lyrics

Guitar lessons | Add/correct | Request | Top 50 tabs Artists:  A B C D E F G H I J K L M N O P Q R S T U V W X Y Z 0-9

Sobrang Init Bass Tabs – Kamikazee

CD, Sheet music, Poster

Do you like Sobrang Init? Share with your friends now
Bass TabsBass Tabs v2TabsTabs v2Tabs v3
para sa lahat ng bahista sa Pilipinas


INTRO
[--------------------------------------]
[--------------------------------------]
[-5-4---------5-4--------5-4-----------]  *REPEAT  UNTIL CHORUS
[ -----33333-----33333--------33333----]


CHORUS
[--------------------------------------]
[--------------------------------------]
[-3-5-6-3-6-5-3-5-3-5-3-6-5-3-5--------]   REPEAT 4X THEN
[--------------------------------------]

[---------------------------------------]
[---------------------------------------]
[---------------------------------------]
[-3-3-3-3-3-3-3-3-3-3-3-3-3-3-3---------]

VERSE 2
(REPEAT INTRO TAB)
THEN
[-----------------------]
[-----------------------]
[-5-4-5-4--5-4---------]  REPEAT 7X THEN
[-----3----3-----3------]

[----------------------]
[----------------------]
[----3-5---------------]
[5-5-------------------]

CHORUS
(REPEAT CHORUS TABEXCEPT LAST PART)
[---------------------]
[---------------------]
[---------------------] SLIGHTLY FASTER
[-3-3-3-3-------------]

-AFTER CHORUS PART
[-----------------]
[-----------------]
[-----------------]
[-3------3------3-] THEN

[-------------]
[-------------]
[--5-3-5-3----]
[-3---3-------]   REPEAT MANY TIMES THEN


[----------]
[----------]
[3-3-3-3---]
[-5-5-5-5--]  REPEAT MANY TIMES THEN

[------------------]
[------------------] ] REPEAT THEN
[3-55-5-5---------]
[----3-33-3-------]

[--------]
[--------]
[-3-5-7-9]  REPEAT 3X THEN
[--------]

[--------------]
[--------------]
[-3-5-7-9-10---]
[--------------]

-CHORUS
(REPEAT CHORUS TAB) 2X THEN
[-------------------]
[-------------------]
[-------------------]
[3-5-6-3-6-5-3-5----]  REPEAT 2X
THEN REPEAT CHORUS TAB

[-----------------------------------------------]
[-----------------------------------------------]
[-----------------------------------------------]
[33-3333-3-3-3-3-3-33333333-----------------]

REPEAT INTRO TAB MANY TIMES THEN

[-------------------------------------------------]
[-------------------------------------------------]
[-5-4------5-4-------5-4-------5-4----------------]
[-----3-3-3----3-3-3----3-3-3-----3-3-3-0-3-------]

Please rate this tab
thanks.





Comments


Popular Kamikazee tabs & chords
Tagpuan 2 Chords
Unang Tikim Chords
Ambisyoso Tabs
Changes Tabs
Director's Cut 2 Tabs
Lalandiin Tabs
Shoot Dat Bol Tabs
Anime Ukulele
Lalandiin Ukulele
Ung Tagalog Ukulele


Song lyrics



↑ Back to top | Tablatures and chords are parodies/interpretations of the original songs. You may use it for private study, scholarship, research or language learning purposes only
© 2014 AZChords.com Contact us | Privacy policy | DMCA | Add/correct tabs | Request tabs | Top 50 tabs