>
 >
Rooky Jr

Rooky Jr Guitar Tabs

Kamikazee - Rooky Jr chords, tabs, tablatures, lyrics

Guitar lessons | Add/correct | Request | Top 50 tabs Artists:  A B C D E F G H I J K L M N O P Q R S T U V W X Y Z 0-9

Rooky Jr Guitar Tabs – Kamikazee

CD, Sheet music, Poster

Do you like Rooky Jr? Share with your friends now
Tabs
intro: w/o distortion
Riff 1
E---------------------------------------------|
B-------------666666---777777--999999---------|
G----777777---xxxxxx---xxxxxx--xxxxxx---------|  (2x)
D----xxxxxx---xxxxxx---xxxxxx--xxxxxx---------|
A----xxxxxx---444444---555555--777777---------|
E----555555-----------------------------------|
Riff 2
(distortion)
E----------------------------------------------|
B----------------------------------------------|
G----------------------------------------------|
D--------6~--7~--9~----------------------------|
A----7~--4~--5~--7~----------------------------|
E----5~----------------------------------------|

1st and 2nd verse: Riff 1
chorus: Riff 2

3rd verse: palm-muted and distorted
E----------------------------------------------|
B----------------------------------------------|
G----------------------------------------------|
D------------666666----777777--999999----------|
A---777777---444444----555555--777777----------|
E---555555-------------------------------------|

chorus: Riff 2
after chorus:
E----------------------------------------------|
B----------------------------------------------|
G------------------7--9--------------7---------|
D------------------5--7--------------5---------|
A-----7--77-7-77---------7--77-7-77------7-----|
E-----5--55-5-55---------5--55-5-55------5-----|

bridge: "everything is clear..."
Riff 3
E----------------------------------------------|
B---------------------------------5h7----5h7---|
G-----------------------------5h7----5h7-------|
D---777777--555555----777777-------------------|  (2x)
A---555555--333333----555555-------------------|
E----------------------------------------------|

E----------------------------------------------|
B----------------------------------------------|
G----------------------------------------------|
D-0--7~~~----(pickslide)---0-7~~~--0-7~~~------|
A-0--5~~~----(pickslide)---0-5~~~--0-5~~~------|
E------------(pickslide)-----------------------|

bridge: throat part "burn...,rooky jr gettin' on the wind"
E----------------------------------------------|
B----------------------------12----------------|
G---9----9-9---9----9--------------------------|
D----------------------------------------------|
A---7----7-7---7----7--------------------------|
E----------------------------------------------|

solo:
E----------------------------------------------|
B---------------------------5---------5--------|
G----------------------5-7-----7--5-7---7--5-7-|
D-1/3-3/5-5-5/7----5h6-------------------------|
A----------------------------------------------|
E----------------------------------------------|

E----------------------------------------------|
B----------------------------------------------|
G---777777---666666--777777--999999------------|
D----------------------------------------------|
A---555555---444444--555555--777777------------|
E----------------------------------------------|

E----------------------------------------------|
B----------------------------------------------|
G----777777---666666---777777--99--7--66-------|
D----------------------------------------------|
A----555555---444444---555555--77--5--44-------|
E----------------------------------------------|
end of solo...
bass line:
G----------------------------------------------|
D----------------------------------------------|
A------------444444--555555--777777------------|
E----555555------------------------------------|
bend and let ring
E----------------------------------------------|
B----------------------------------------------|
G----5(5^6^7~~~)-------------------------------|
D----------------------------------------------|
A----------------------------------------------|
E----------------------------------------------|

repeat chorus: Riff 2, then riff 3
then, the after chorus riff til fade.....





Comments


Popular Kamikazee tabs & chords
Kunwari Bass Tabs
Lalandiin Chords
Changes Tabs
Diskoskwela Tabs
Girlfriend 2 Tabs
Kislap Tabs
Sound Check Tabs
Ung Tagalog 7 Tabs
If Youre Not Here Ukulele
Tagpuan Ukulele


Song lyrics



↑ Back to top | Tablatures and chords are parodies/interpretations of the original songs. You may use it for private study, scholarship, research or language learning purposes only
© 2014 AZChords.com Contact us | Privacy policy | DMCA | Add/correct tabs | Request tabs | Top 50 tabs