» » »

Lucky Tabs (ver.1)

Artists:  A B C D E F G H I J K L M N O P Q R S T U V W X Y Z # 

Lucky Tabs (ver.1)

Kamikazee
Rating:
0/5 (0 votes)

Hard to play? Try these video lessons and learn fast.
                Kamikazee - Lucky

Eto inayos ko ulit..medyo mas maiintindihan nyo na. paki rate nlang ule..
(salamat sa nag rate inayos ko talaga to para sau..)

Intro

Early morning...
|-------|
|-------|
|---7---|
|---7---|
|---5---|
|-------|

Verse

|-----------------------------------|
|-----------------------------------|
|---77777---44444-------------------|
|---77777---44444---55555---77777---|
|---55555---22222---55555---77777---|
|-------------------33333---55555---|
PM   ....    ....    ....    ....

Pre-chorus

Isn't she lucky
|-----------------------------------|
|-----------------------------------|
|---77777---44444-------------------|
|---77777---44444---55555---77777---|
|---55555---22222---55555---77777---|
|-------------------33333---55555---|

Chorus
(she's so lucky)
|-----------------------------------|
|-----------------------------------|
|---77777---44444-------------------|
|---77777---44444---55555---77777---|
|---55555---22222---55555---77777---|
|-------------------33333---55555---|

Interlude 1(after 1st chorus )

|------------------------------------------|
|------------------------------------------|
|---6/777---6/777---6/7-6/7----------------|
|---6/777---6/777---6/7-6/7--12-11-9-7-7---|
|---4/555---4/555---4/5-4/5--10-9--7-5-5---|
|------------------------------------------|

Verse+
Pre-chorus+
Chorus+

Interlude 2(after chorus 2nd chorus)
|-----------------------------------|-------------------------------|-----|
|-----------------------------------|-------------------------------|-----|
|---6/777-------6/7-6/7-------------|--6/77777--6/777777------------|-----|  
|---6/777---12/-6/7—6/7--12-11-9-7--|--6/77777--6/777777-12-11-9-7--|--7--|
|---4/555---10/-4/5-4/5--10-9--7-5--|--4/55555--4/555555-10-9--7-5--|--5--|
|-----------------------------------|-------------------------------|-----|
Ay Ay a a a ay...                     (repeat as many times as needed)       


      dist. off     dist. on
   /-------------\  /------\
|------------------------------|
|------------------------------|
|---44444----------------------|
|---44444---55555---77777777---|
|---22222---55555---77777777---|
|-----------33333---55555555---|
pm                  ...

Outro

|---------------------------------------------------------------------------|
|---------------------------------------------------------------------------|
|--77--7/999/7--44--7/999/7------7/999/7------9/111111/9---77--9/111111/9---|
|--77—-----------------------33--------—--77--------------------------------|
|--55--5/777/5--22--5/777/5--33--5/777/5--77--7/-9-9-9/7---55--7/-9-9-9/7---|
|----------------------------55-----------55--------------------------------|

|---------------------------------------------------------------------------|
|---------------------------------------------------------------------------|
|----44--9/111111/7------9/111111/9------9/111111/9-------------------------|
|--------------------33--------—-----77-------------------------------------|
|----22--7/-9-9-9/5--33--7/-9-9-9/7--77--7/-9-9-9/7-------------------------|
|--------------------55--------------55-------------------------------------|

                      why do..
|--------------------|---------------|
|--------------------|---------------|
|--99999/1111111111--|---------------|
|--------------------|---55555---7---|
|--77777/-9-9-9-9-9--|---55555---7---|
|--------------------|---33333---5---|
w/ solo(di ko alam un solo..)     

Paki rate... tnx!

                                 +++TAPOS+++
            
Hard to play? Try these video lessons and learn fast. | Correct




comments powered by Disqus
↑ Back to top | Tablatures and chords are parodies/interpretations of the original songs. You may use it for private study, scholarship, research or language learning purposes only