>
 >
Halik 1

Halik 1 Guitar Tabs

Kamikazee - Halik 1 chords, tabs, tablatures, lyrics

Guitar lessons | Add/correct | Request | Top 50 tabs Artists:  A B C D E F G H I J K L M N O P Q R S T U V W X Y Z 0-9

Halik 1 Guitar Tabs – Kamikazee

CD, Sheet music, Poster

Do you like Halik 1? Share with your friends now
Bass TabsChordsChords v2Chords v3Chords v4TabsTabs v2Tabs v3Tabs v4Tabs v5Tabs v6Tabs v7UkuleleUkulele v2
Song Title:   Halik
Artist/Band:  Kamikazee

Tuning:       1/2 Step Down
--------------------------------------------------------------------------------------------------

INTRO:

Guitar1:

|--------------------------------------|
|--------------------------------------|
|-555555555555555555555555555~-7/9-7\5-|
|-xxxxxxxxxxxxxxxxxxxxxxxxxxx--xxx-x\x-|
|-333333333333333333333333333~-5/7-5\3-|
|--------------------------------------|

|---------------------------------------------------------|
|---------------------------------------------------------|
|---12-12--10po9-7-7h9~---12-12---12-12-12/14-12-10po9-7~-|
|-10--------------------10------10------------------------|
|---------------------------------------------------------|
|---------------------------------------------------------|

|--------------------------------------------------------------------------------------------|
|--------------------------------------------------------------------------------------------|
|---12-12-10po9-7-9po7---12/14-12-10po9-10-9h10-9----------------------------------------5~~-|
|-10------------------10-------------------------10/12~~---------------------------------5~~-|
|----------------------------------------------------------*****************************-3~~-|
|----------------------------------------------------------*****************************-----|
                                                            |--------pickslide--------|

Guitar2: C-G-Am-F-G (2x) C (break)


VERSE1:

Guitar1:

|-----3-----3~------3-----3~------1-----1~------3-------1---|
|-5-5---5-5-----5-5---5-5-----1-1---1-1-----3-3---3-1-1---1-|
|-----------------------------------------------------------|
|-----------------------------------------------------------|
|-----------------------------------------------------------|
|-----------------------------------------------------------|

|-----3-----3~------3-----3~------3-----3~------1-----1~-|
|-5-5---5-5-----5-5---5-5-----3-3---3-3-----1-1---1-1----|
|--------------------------------------------------------|
|--------------------------------------------------------|
|--------------------------------------------------------|
|--------------------------------------------------------|

|-3333333333333333-11111111-3333-1111-|-3333333333333333-33333333-11111111-3~~-|----------|
|-5555555555555555-11111111-3333-1111-|-5555555555555555-33333333-11111111-3~~-|----------|
|-------------------------------------|----------------------------------------|--7/9-7\5-|
|-------------------------------------|----------------------------------------|--xxxxxxx-|
|-------------------------------------|----------------------------------------|--5/7-5\3-|
|-------------------------------------|----------------------------------------|----------|

Guitar2:

|-----------------------------------------------------------|
|-----5-----5~------5-----5~------1-----1~------3-------1---|
|-5-5---5-5-----5-5---5-5-----2-2---2-2-----4-4---4-2-2---2-|
|-----------------------------------------------------------|
|-----------------------------------------------------------|
|-----------------------------------------------------------|

|--------------------------------------------------------|
|-----5-----5~------5-----5~------3-----3~------1-----1~-|
|-5-5---5-5-----5-5---5-5-----4-4---4-4-----2-2---2-2----|
|--------------------------------------------------------|
|--------------------------------------------------------|
|--------------------------------------------------------|

|-------------------------------------|------------------------------------3~~-|
|-5555555555555555-11111111-3333-1111-|-5555555555555555-33333333-11111111-3~~-|
|-5555555555555555-22222222-4444-2222-|-5555555555555555-44444444-22222222-4~~-|
|-------------------------------------|----------------------------------------|
|-------------------------------------|----------------------------------------|
|-------------------------------------|----------------------------------------|

C           F          G     F
Kumupas na, lambing sa'yong mga mata
C                     G              F
Nagtataka kung bakit, yakap mo'y 'di na nadarama
C                       F                     G        F
May mali ba kong nagawa? Tila nag-iba ang mga kilos mo at salita
C          G          F            G
Bakit kaya? Parang hindi ka na masaya...


CHORUS:

C                 G - Am   F                G
Ika'y biglang natauhan, umalis kaagad ng hindi nagpapaalam
C                   G      Am            F                G
Ang sabi ko hindi kita mamimiss, hanggang kelan ito matitiis?
C                 G - Am   F               G
Ika'y biglang natauhan, umalis kaagad ng wala man lang paalam
C                   G    Am            F                G -- C (break)
Pag nawala doon lang mamimiss, hanggang kelan ito matitiis?


VERSE2:

Guitar1:

|-----3-----3~------3-----3~------1-----1~------3-------1---|
|-5-5---5-5-----5-5---5-5-----1-1---1-1-----3-3---3-1-1---1-|
|-----------------------------------------------------------|
|-----------------------------------------------------------|
|-----------------------------------------------------------|
|-----------------------------------------------------------|

|-----3-----3~------3-----3~------3-----3~------1-----1~-|
|-5-5---5-5-----5-5---5-5-----3-3---3-3-----1-1---1-1----|
|--------------------------------------------------------|
|--------------------------------------------------------|
|--------------------------------------------------------|
|--------------------------------------------------------|

|-3333333333333333-11111111-3333-1111-|-3333333333333333-33333333-11111111-3~~-|----------|
|-5555555555555555-11111111-3333-1111-|-5555555555555555-33333333-11111111-3~~-|----------|
|-------------------------------------|----------------------------------------|--7/9-7\5-|
|-------------------------------------|----------------------------------------|--xxxxxxx-|
|-------------------------------------|----------------------------------------|--5/7-5\3-|
|-------------------------------------|----------------------------------------|----------|

Guitar2: (repeat 4x)

|---------------------------------------------------------|
|---------------------------------------------------------|
|---------------------------------------------------------|
|-----5-----5~------5-----5~------5-----5~------5-----5~--|
|-3-3---3-3-----3-3---3-3-----3-3---3-3-----3-3---3-3-----|
|---------------------------------------------------------|


C          F               G     F
Alam ko na, magaling lang ako sa umpisa
C                   G                F
Umasa ka pa sa akin, mga pangakong nauwi lang sa wala
C                                                F                G        F
Nasayang lang ang 'yong pag-tiyatiyaga, wala kang napala, at puro lang ako salita,
C         G           F          G
Kaya pala, pag-gising ko wala ka na...


---REPEAT CHORUS---


ADLIB:

  G                  G                                F
|------------------|-------------------------------------------------------------------|
|------------------|-------------------------------------------------------------------|
|-1212121212121212-|-12121212121212121212121212121212-10101010101010101010101010101010-|
|-xxxxxxxxxxxxxxxx-|-xxxxxxxxxxxxxxxxxxxxxxxxxxxxxxxx-xxxxxxxxxxxxxxxxxxxxxxxxxxxxxxxx-|
|-1010101010101010-|-10101010101010101010101010101010-8-8-8-8-8-8-8-8-8-8-8-8-8-8-8-8--|
|------------------|-------------------------------------------------------------------|

  Am               G        F        E  F                E D C
|--------------------------------------------------------------------------------|----------|
|--------------------------------------------------------------------------------|----------|
|-1414141414141414-12121212-10101010-99/1010101010101010-9-7-5555555555555555-5~-|--7/9-7\5-|
|-xxxxxxxxxxxxxxxx-xxxxxxxx-xxxxxxxx-xx-xxxxxxxxxxxxxxxx-x-x-xxxxxxxxxxxxxxxx-x~-|--xxx-xxx-|
|-1212121212121212-10101010-8-8-8-8--77/8-8-8-8-8-8-8-8--7-5-3333333333333333-3~-|--5/7-5\3-|
|--------------------------------------------------------------------------------|----------|


CHORUS:

C                 G - Am   F                G
Ika'y biglang natauhan, umalis kaagad ng hindi nagpapaalam
C                   G      Am            F                G
Ang sabi ko hindi kita mamimiss, hanggang kelan ito matitiis?
C                  G - Am     F                   G
Ngayon ko lang natutunan, masubukang mabuhay ng para bang may kulang
C               G        Am           F                  G
Pag nawala doon lang mamimiss, paalam sa halik mong matamis..


Guitar 1: (ngayon ko lang..)

|--------------------------------------------------------|
|--------------------------------------------------------|
|---12-12-10po9-7-7h9~---12-12---12-12-12/14-12-10po9-7~-|
|-10-------------------10------10------------------------|
|--------------------------------------------------------|
|--------------------------------------------------------|

|--------------------------------------------------------|
|--------------------------------------------------------|
|---12-12-10po9-7-9po7---12/14-12-10po9-10-9h10-9--------|
|-10------------------10-------------------------10/12~~-|
|--------------------------------------------------------|
|--------------------------------------------------------|


OUTRO:

Guitar1:

|------------------------------|
|------------------------------|
|-5~----------5~-1010~-1212~~--|
|-x--33~-55~--x--xxxx--xxxx----|
|-3~-33~-55~--3~-8-8~~-1010~~--|
|----11~-33~-------------------|



Guitar2:

|--------------------------|
|--------------------------|
|--------------------------|
|-5~-33~-55~--5~-33~-55~~--|
|-3~-33~-55~--3~-33~-55~~--|
|----11~-33~-----11~-33~~--|


/  - slide up
\  - slide down
*  - pickslide
po - pulloff
x  - dead note
~  - let ring
h  - hammer on

Paki-rate po..pinaghirapan ko yan..thnx!:D

-----------------------------------------------------------------------------------------

> SenthyX Zone (sxz)
> Senthyx Band





Comments


Popular Kamikazee tabs & chords
Alay 1 Chords
Doo Bidoo Chords
Halik 4 Chords
Huling Sayaw 5 Chords
Tagpuan Chords
Halik Intro Tabs
Kislap Tabs
Ung Tagalog 2 Tabs
Mmm Sarap Ukulele
Narda Ukulele


Song lyrics



↑ Back to top | Tablatures and chords are parodies/interpretations of the original songs. You may use it for private study, scholarship, research or language learning purposes only
© 2014 AZChords.com Contact us | Privacy policy | DMCA | Add/correct tabs | Request tabs | Top 50 tabs