» » »

Kamikazee, Halik Chords (ver.1)

Artists:  A B C D E F G H I J K L M N O P Q R S T U V W X Y Z # 

Halik Chords (ver.1)

Kamikazee Tabs
 Rating:
4/5 (4 votes)
Halik lessons Tabs too difficult? Try these video lessons and learn fast
                
pasensya di ko alam yung sa Bridge ehh :)
STANDARD TUNING

INTRO
|------------|
|------------|
|-4----------| many times
|-x----------|
|-1----------|
|-x----------|

|---------------|
|---------------|
|----- 6/8--6---|
|-x-------------|
|-4/6--4--------|
|----x----------|

|--------------------------|--------------------------------------|
|--------------------------|--------------------------------------|
|--------------------------|--------------------------------------|
|-2-----4-4---4------------|-2---4-4------------------------------|
|-2-----2-2---2--4-4---6-6-|-2---2-2--4-4~------------------------|
|----------------2-2---4-4-|----------2-2~------------------------|


|--------------------------|--------------------------------------|
|--------------------------|--------------------------------------|
|--------------------------|--------------------------------------|
|-2-----4-4---4------------|-2---4-4------------------------------|
|-2-----2-2---2--4-4---6-6-|-2---2-2--4-4~------2~----------------|
|----------------2-2---4-4-|----------2-2~------2~----------------|

VERSE
|-------            |-------          |-----------    |---------|
|-------            |-------          |-----------    |---------|
|------- 16 Times   |------- 8 Times  |-----------4x  |---------|
|-2-----            |-------          |-----------    |---------|
|-2-----            |-4-----          |-6---------    |-8-------|
|-------            |-2-----          |-4---------    |-6-------|
Kumupas na..        Lambing sa        iyong mga ma    ta.........


|-------            |-------          |-----------    |---------|
|-------            |-------          |-----------    |---------|
|------- 16 Times   |------- 8 Times  |-----------4x  |---------|
|-2-----            |-------          |-----------    |---------|
|-2-----            |-4-----          |-6---------    |-8-------|
|-------            |-2-----          |-4---------    |-6-------|
nagtataka kung bkt  Yakap mo'y di     na  na           dara


|-------            |-------          |-----------    |---------|
|-------            |-------          |-----------    |---------|
|------- 16 Times   |------- 8 Times  |-----------4x  |---------|
|-2-----            |-------          |-----------    |---------|
|-2-----            |-4-----          |-6---------    |-8-------|
|-------            |-2-----          |-4---------    |-6-------|
ma, may mali.....   Tila nag iba....  Kilos mo...    at sali

|-------            |-------          |-----------    |---------|
|-------            |-------          |-----------    |---------|
|------- 16 Times   |------- 8 Times  |-----------4x  |---------|
|-2-----            |-------          |-----------    |---------|
|-2-----            |-4-----          |-6---------    |-8-------|
|-------            |-2-----          |-4---------    |-6-------|
ta, bkt kaya..      parang            hindi ka        na

|-------     |---------------|
|-------     |---------------|
|-------     |--6/8--6-------|
|-2~----     |--x----x-------|
|-2~----     |--4/6--4-------|
|-------     |--x----x-------|
masaya...



CHORUS:

|--------------------------|--------------------------------------|
|--------------------------|--------------------------------------|
|--------------------------|--------------------------------------|
|-2-----4-4---4------------|-2---4-4------------------------------|
|-2-----2-2---2--4-4---6-6-|-2---2-2--4-4~------------------------|
|----------------2-2---4-4-|----------2-2~------------------------|


|--------------------------|--------------------------------------|
|--------------------------|--------------------------------------|
|--------------------------|--------------------------------------|
|-2-----4-4---4------------|-2---4-4------------------------------|
|-2-----2-2---2--4-4---6-6-|-2---2-2--4-4~------2~----------------|
|----------------2-2---4-4-|----------2-2~------2~----------------|
            
Submit corrections

comments powered by Disqus
↑ Back to top | Kamikazee Chords for Halik. Lyrics for acoustic guitar and electric guitar. Tablatures and chords are parodies/interpretations of the original songs. You may use it for private study, scholarship, research or language learning purposes only