» » »

Kamikazee, Diskoskwela Tabs (ver.1)

Artists:  A B C D E F G H I J K L M N O P Q R S T U V W X Y Z # 

Diskoskwela Tabs (ver.1)

Kamikazee Tabs
 Rating:
4.2/5 (5 votes)
Diskoskwela lessons Tabs too difficult? Try these video lessons and learn fast
1
                diskoswela tabs
     (Jethro Ilagan)
          (add nyo ko friendster please!!)
first time ko toh mag pass ng tabs.. 
dedicated toh sa ex-gf ko,present-gf and future-gf!!
xempre para sa mga kabanda koh!! rock on!!
mabuhay ang FILIPINO music!! mabuhay ang KAMIKAZEE!!

Both Guitarz
[intro1]
|-7-7-7-5h7p5-h7p5--7-7-7-------------7-7-7-5h7p5-h7p5-------------------|
|-9-9-9-------------9-9-9-------------9-9-9-------------5-5-5-5-7-7-7-7--|
|-9-9-9-------------9-9-9-7h9p7-h9p7--9-9-9-------------7-7-7-7-9-9-9-9--|
|-------------------------------------------------------7-7-7-7-9-9-9-9--|
|------------------------------------------------------------------------|
|------------------------------------------------------------------------|

[intro2]
|-0-7-7-5-7--------------0-7-7-5-7--0-7-7-5-7--|
|-0-9-9-7-9-5-5-5-7-7-7--0-9-9-7-9--0-9-9-7-9--|
|-0-9-9-7-9-7-7-7-9-9-9--0-9-9-7-9--0-9-9-7-9--|
|-----------7-7-7-9-9-9------------------------|
|----------------------------------------------|
|----------------------------------------------|

|-0-7-7-5-7--------------0-7-7-5-7--2~~--------|
|-0-9-9-7-9-5-5-5-7-7-7--0-9-9-7-9--4~~--------|
|-0-9-9-7-9-7-7-7-9-9-9--0-9-9-7-9--4~~--------|
|-----------5-7-7-9-9-9------------------------|
|----------------------------------------------|
|----------------------------------------------|

And do this as pickslide
|-7-5-3-2-|
|-9-7-5-4-|
|-9-7-5-4-|
|---------|
|---------|
|---------|

[verse1]
 
|-0-7-5-7--------0-7-5-7-------------0-7-5-7-------------------------------|
|-0-9-7-9--------0-9-7-9-------------0-9-7-9--------5-5-5-7~~--------------|
|-0-9-7-9--------0-9-7-9-------------0-9-7-9--------7-7-7-9~~--------------|
|---------------------------------------------------7-7-7-9~~--------------|
|--------------------------------------------------------------------------|
|--------------------------------------------------------------------------|
|
|--------------------------------------------------------------|
|--------------------------------------------------------------|
|--------------------------------------------------------------|
|---------11--11---------11------------------11--11---------9b-|
|-----------12-------------12-12--12-----------12--------------|
|-------------------------------11-----------------------------|
 
|-0-7-5-7--------0-7-5-7-------------0-7-5-7-------------------------------|
|-0-9-7-9--------0-9-7-9-------------0-9-7-9--------5-5-5-7~~--------------|
|-0-9-7-9--------0-9-7-9-------------0-9-7-9--------7-7-7-9~~--------------|
|---------------------------------------------------7-7-7-9~~--------------|
|--------------------------------------------------------------------------|
|--------------------------------------------------------------------------|
|
|--------------------------------------------------------------|
|--------------------------------------------------------------|
|-----------------------------------------------------------9b-|
|---------11--11---------11------------------11--11------------|
|-----------12-------------12-12--12-----------12--------------|
|-------------------------------11-----------------------------|
 
|-0-7-5-7--------0-7-5-7-------------0-7-5-7-------------------------------|
|-0-9-7-9--------0-9-7-9-------------0-9-7-9--------5-5-5-7~~--------------|
|-0-9-7-9--------0-9-7-9-------------0-9-7-9--------7-7-7-9~~--------------|
|---------------------------------------------------7-7-7-9~~--------------|
|--------------------------------------------------------------------------|
|--------------------------------------------------------------------------|
|
|--------------------------------------------------------------|
|--------------------------------------------------------------|
|--------------------------------------------------------------|
|---------11--11---------11------------------11--11---------9b-|
|-----------12-------------12-12--12-----------12--------------|
|-------------------------------11-----------------------------|
 
|-0-7-5-7--------0-7-5-7-------------0-7-5-7--------|
|-0-9-7-9--------0-9-7-9-------------0-9-7-9--------|
|-0-9-7-9--------0-9-7-9-------------0-9-7-9--------|    
|---------------------------------------------------|
|---------------------------------------------------|
|---------------------------------------------------|
|
|---------------------------------------------------|
|---------------------------------------------------|
|---------------------------------------------------|
|---------11--11---------11------------------11--11-|
|-----------12-------------12-12--12-----------12---|
|-------------------------------11------------------|

then both guitars
|-------------------------------------------------------|
|-5-5-5-5-5-5-5--7-7-7-7-7-7-7--9--9--9--9--9--9--9--9--|
|-7-7-7-7-7-7-7--9-9-9-9-9-9-9--11-11-11-11-11-11-11-11-|
|-7-7-7-7-7-7-7--9-9-9-9-9-9-9--11-11-11-11-11-11-11-11-|
|-------------------------------------------------------|
|-------------------------------------------------------|
-palm mute toh pero sa bandang last
 part mawawala

[chorus]
repeat intro2x1
[verse2]
 
|-0-7-5-7--------0-7-5-7-------------0-7-5-7-------------------------------|
|-0-9-7-9--------0-9-7-9-------------0-9-7-9--------5-5-5-7~~--------------|
|-0-9-7-9--------0-9-7-9-------------0-9-7-9--------7-7-7-9~~--------------|
|---------------------------------------------------7-7-7-9~~--------------|
|--------------------------------------------------------------------------|
|--------------------------------------------------------------------------|
|
|--------------------------------------------------------------|
|--------------------------------------------------------------|
|--------------------------------------------------------------|
|---------11--11---------11------------------11--11---------9b-|
|-----------12-------------12-12--12-----------12--------------|
|-------------------------------11-----------------------------|

|-0-7-5-7--------0-7-5-7-------------0-7-5-7-------------------------------|
|-0-9-7-9--------0-9-7-9-------------0-9-7-9--------5-5-5-7~~--------------|
|-0-9-7-9--------0-9-7-9-------------0-9-7-9--------7-7-7-9~~--------------|
|---------------------------------------------------7-7-7-9~~--------------|
|--------------------------------------------------------------------------|
|--------------------------------------------------------------------------|
|
|--------------------------------------------------------------|
|--------------------------------------------------------------|
|-----------------------------------------------------------9b-|
|---------11--11---------11------------------11--11------------|
|-----------12-------------12-12--12-----------12--------------|
|-------------------------------11-----------------------------|
 
|-0-7-5-7--------0-7-5-7-------------0-7-5-7-------------------------------|
|-0-9-7-9--------0-9-7-9-------------0-9-7-9--------5-5-5-7~~--------------|
|-0-9-7-9--------0-9-7-9-------------0-9-7-9--------7-7-7-9~~--------------|
|---------------------------------------------------7-7-7-9~~--------------|
|--------------------------------------------------------------------------|
|--------------------------------------------------------------------------|
|
|--------------------------------------------------------------|
|--------------------------------------------------------------|
|--------------------------------------------------------------|
|---------11--11---------11------------------11--11---------9b-|
|-----------12-------------12-12--12-----------12--------------|
|-------------------------------11-----------------------------|
 
|-0-7-5-7--------0-7-5-7-------------0-7-5-7--------|
|-0-9-7-9--------0-9-7-9-------------0-9-7-9--------|
|-0-9-7-9--------0-9-7-9-------------0-9-7-9--------|    
|---------------------------------------------------|
|---------------------------------------------------|
|---------------------------------------------------|
|
|---------------------------------------------------|
|---------------------------------------------------|
|---------------------------------------------------|
|---------11--11---------11---------------------11--|
|-----------12-------------12-12--12-------12-12----|
|-------------------------------11----------------11|

then both guitars
|-------------------------------------------------------|
|-5-5-5-5-5-5-5--7-7-7-7-7-7-7--9--9--9--9--9--9--9--9--|
|-7-7-7-7-7-7-7--9-9-9-9-9-9-9--11-11-11-11-11-11-11-11-|
|-7-7-7-7-7-7-7--9-9-9-9-9-9-9--11-11-11-11-11-11-11-11-|
|-------------------------------------------------------|
|-------------------------------------------------------|

[chorus]
repeat intro2x2
-pakinggan nyo nalang yung song para 
 malaman niyo kung kailan mag fafade
-don't do the pickslide

then yung part bago magadlib

BASSLINE:
|-3-5-5-|         |-3-5-5-3-3-5-5-|
|-------| x4 den  |---------------| x7
|-------|         |---------------|
|-------|         |---------------|
-listen for the tempo
 
 during this bassline guitar1 plays 
 this:
|---5---|
|---7---|
|---7---| (use the pedal w/ distortion)
|-------|
|-------|
|-------|
 
 then guitar2's turn
|-5~~-5~~---------------------------------|
|-7~~-7~~-10~~-12~~--10~~-12~~--10~~-12~~-|
|-7~~-7~~-x----x----x----x------x----x----|
|---------12~~-14~~--11~~-14~~--11~~-14~~-|
|-----------------------------------------|
|-----------------------------------------|
-papasok sya sa pang 5th time ng
 2nd part ng bassline

then the adlib..
 
|-5-5-5-5-5-5-5-3-3-3-3-2-2-2-2--5-5-5-5-5-5-5-----------------|
|-7-7-7-7-7-7-7-5-5-5-5-4-4-4-4--7-7-7-7-7-7-7-3-3-3-3-5-5-5-5-| x4
|-7-7-7-7-7-7-7-5-5-5-5-4-4-4-4--7-7-7-7-7-7-7-5-5-5-5-7-7-7-7-|
|----------------------------------------------5-5-5-5-7-7-7-7-|
|--------------------------------------------------------------|
|--------------------------------------------------------------|
|
|--------------------------------------------------------------|
|--------------------------------------------------------------| x2
|--------------------------------------------------------------|
|-9x7-----------7x4-----6x4------9x7---------------------------|
|----------------------------------------------8x4----10x4-----|
|--------------------------------------------------------------|

|--------------------------------------------------------------|
|--------------------------------------------------------------|
|--------------------------------------------------------------|
|--------------------------------------------------------------|
|-10x7----------8x4-----7x4------10x7--------------------------|
|----------------------------------------------8x4-----10x4----|

|--------------------------------------------------------------|
|--------------------------------------------------------------| 
|--------------------------------------------------------------|
|--------------------------------------------------------------|
|--------------------------------------------------------------|
|-12x7----------10x4----9x4------12x7----------15x4----17x4----|
-palm mute ung guitar1 sa part na toh
-pakinggan nyo ung song ng mabuti
 para malaman nyo kung kailan papasok
 ung mga guitars

then repeat
intro1x1
intro2x2
-don't do the pickslide

both guitars for the outro
|-7-5-7-|
|-9-7-9-|
|-9-7-9-|
|-------|
|-------|
|-------|


*laro laruin nlng ng guitar2
 ung mga plucking nya sa mga verse
*then dun sa mga pag bebend ng guitar2
 okz na rin kahit ung guitar1 na
 ung gumawa nun
*sa adlib ng guitar2 laro laroin 
 nyo narin.. mamili kayo ng maayoz
 na distortion para magblend
*let's support filipino music
*paki rate nalng..
*add nyo ko friendster emailaad ko:
*thank you jerome sa libreng internet!! mwaah!!
 
                               ~end~
            
Submit corrections

comments powered by Disqus
↑ Back to top | Kamikazee Tabs for Diskoskwela. Lyrics for acoustic guitar and electric guitar. 1 Tablatures and chords are parodies/interpretations of the original songs. You may use it for private study, scholarship, research or language learning purposes only