» » »

Apir Day Tabs (ver.1)

Artists:  A B C D E F G H I J K L M N O P Q R S T U V W X Y Z # 

Apir Day Tabs (ver.1)

Kamikazee
Rating:
5/5 (5 votes)

Hard to play? Try these video lessons and learn fast.
                Album:Maharot
              09229015724(Sun Cell)


Gtr.Legends:
x  - DEAD STRING
~  - LET IT RING
.  - PALM MUTING
b  - BEND
/\ - SLIDE

Gtr.Tuning:Standard(Normal)

Intro prt.1
e|---------------------------|
B|-5-5-5-5----x-5-x-5-x-44---|
G|-6-6-6-6----x-5-x-5-x-55---|
D|---------------------------|
A|---------------------------|
E|---------------------------|
   . . . .      .   .   .. 

Intro prt.2
Gtr.1
e|-----------------------------------------|
B|-5555555-7777777-9999999-101010/121212---|
G|-6666666-7777777-9999999-101010/121212---|
D|-----------------------------------------|
A|-----------------------------------------|
E|-----------------------------------------|
   ....    ....    ....    ......

Gtr.2
e|--------------      ------------------------|
B|-5-7-5-77-5--- 3x   --10-10-9--10-10-9-12---| 2x
G|-------------- Then ------------------------|
D|--------------      ------------------------|
A|--------------      ------------------------|
E|--------------      ------------------------|


e|--------------------      ------------------5---|
B|--5-7-5--7/9-7--5-7- 3x   --5-7-5--7/9-7--5-----| 2x
G|-------------------- Then ----------------------|
D|--------------------      ----------------------|
A|--------------------      ----------------------|
E|--------------------      ----------------------|

Before Verse:
e|-----------------|
B|-----------------|
G|-----------------|
D|--9-7-6-7-6------|
A|-------------7---|
E|-----------------|

Verse 1:
Doon a amin sa sinkatuna...
e|----------------------------------------|
B|-55--77--99--77---55--77--9999--101010--|
G|-66--77--99--77---66--77--9999--101010--|
D|----------------------------------------|
A|----------------------------------------|
E|----------------------------------------|
  ..  ..  ..  ..   ..  ..  ....  . . .

Chorus:Play intro prt.2
Hawak hawak kamay...

Verse 2:Play verse 1
Nandito na ang buong barkada...

Repeat Chorus:

Apir apir day tayo...
Gtr.1:
e|-----------------------------------------|
B|-5555555-7777777-9999999-101010/121212---|
G|-6666666-7777777-9999999-101010/121212---|
D|-----------------------------------------|
A|-----------------------------------------|
E|-----------------------------------------|
   ....    ....    ....    ......

Gtr.2:
e|--------------------      ------------------5---|
B|--5-7-5--7/9-7--5-7- 3x   --5-7-5--7/9-7--5-----| 2x
G|-------------------- Then ----------------------|
D|--------------------      ----------------------|
A|--------------------      ----------------------|
E|--------------------      ----------------------|

Bridge prt.1:
Both Gtrs.
e|------------------   ----------------|
B|-5-5-5-5-5-5-5-5--   ----------------|
G|-6-6-6-6-6-6-6-6--   ----------------|
D|------------------   --9-7-6-7-6-----|
A|------------------   ------------7---|
E|------------------   ----------------|
   . . . . . . . .

Gtr.1
e|--3~--1~--2~--1~---|
B|--3~--1~--2~--1~---|
G|-------------------|
D|-------------------|
A|-------------------|
E|-------------------|

Gtr.2
e|-----------------------------------------------------------------|
B|--4h5~--6-8-9-7-6-5-5/6\5-----9-10-9-10--9h12-10-9-7-5-6-6h8-6---|
G|-----------------------------------------------------------------|
D|-----------------------------------------------------------------|
A|-----------------------------------------------------------------|
E|-----------------------------------------------------------------|

e|--------------------------      ---------------------------------------|
B|--10-9-10-9-9h12-10-9-10~- 2x   --6-5-7-6-6h8-6-5-6-8h10-8-6-5-5/6\5---|
G|-------------------------- Then ---------------------------------------|
D|--------------------------      ---------------------------------------|
A|--------------------------      ---------------------------------------|
E|--------------------------      ---------------------------------------|

Bridge prt.2:
Gtr.1
Eman,pabili ng gulaman...
e|---------------------|
B|-55--77--99--1010----|
G|-66--77--99--1010----|
D|---------------------|
A|---------------------|
E|---------------------|
  ..  ..  ..  . .

Gtr.2
e|----------------------------------------------------------|
B|-14-12~---10-9-10-9-10-10-9b--------5-7-5-7-9-7-5-7-5-4---|
G|-------------------------------5-7------------------------|
D|----------------------------------------------------------|
A|----------------------------------------------------------|
E|----------------------------------------------------------|

Halika tara na...
e|---------------------|
B|-55--77--99--1010----|
G|-66--77--99--1010----| 2x
D|---------------------|
A|---------------------|
E|---------------------|
  ..  ..  ..  . .

No Instruments:
Kunin mo na ang gitara...

oy oy!!oy oy!!
e|------------------------|
B|-55--77--9999--101010---|
G|-66--77--9999--101010---|
D|------------------------|
A|------------------------|
E|------------------------|
   ..  ..  ..    ......

Apir apir day tayo...
Gtr.1:
e|-----------------------------------------|
B|-5555555-7777777-9999999-101010/121212---|
G|-6666666-7777777-9999999-101010/121212---|
D|-----------------------------------------|
A|-----------------------------------------|
E|-----------------------------------------|
  ....    ....    ....    ......

Gtr.2:
e|--------------------      ------------------5---|
B|--5-7-5--7/9-7--5-7- 3x   --5-7-5--7/9-7--5-----| 2x
G|-------------------- Then ----------------------|
D|--------------------      ----------------------|
A|--------------------      ----------------------|
E|--------------------      ----------------------|

Outro:Repeat Intro prt.1
Oy oy oy oy,umba umba um tenge.

End...

Apir Day Lyrics

Verse 1:
Doon sa amin sa sinkatuna
Mahaharot ang mga binata
Isang araw na inaabangan
Apir Day ay ipinag-diriwang

Chorus:
Hawak-hawak kamay iabot mo ang tagay
Kahit sobrang lasing walang nag-aaway
Kunin mo na ang gitara lahat ay kakanta
Kahit wala sa tono basta't sama-sama

Verse 2:
Nandito na ang buong barkada
May softdrinks na at lapad na grandma
Kahit kelan maisipan
Apir Day ay ipinag-diriwang

Repeat Chorus

Apir Apir Apir Day tayo
Apir Apir Aprir Day tayo
Paboritong Holy Day namin to

Bridge:
Eman,pabili ng gulaman
Halika tara na
Mas solido kapag kasama ka
Halika tara na mas solido kapaga kasama ka

Kunin mo na ang gitara
Lahat ay kakanta
Kahit sobrang lasing 
Basta't sama-sama

ayy ayyy
ayy ayyy

Apir Apir Apir Day tayo
Apir Apir Aprir Day tayo
Paboritong Holy Day namin to

oyy oyy oyy oyyy
umba umba um tenge

 
  I would like to greet first offcourse my ONLY ONLY ONE,then;my relatives,my
friends on Montalban(Brgy.Balite Espiritu Subd.),My traitor friends in our school
NSDAPS San Mateo Rizal,Cocklosas,Cocklisay.Cocktabijan,Cockpistrano,Cockyatano,Cockruz,
Franciscock,Picock,f**kmittan,Redick,Simbulbulan,Frondosuso,Bayagin,Titesta,Aldick,and many
moore,our band club(COMBO-RATS),Project X,To all my txt mates and other companie,Red Porn Records,
My friends in YM and Friendster,and most of all,hi to God...Tnx for all the blessings...

Padre Garrote:          Extra:

Dino Testa:Vocals       Andrei Frondoso:Xylophone,Triangles,Flute and Tamborine           
Edy Capistrano:Gtr.1    Mike Alvez:Sub-Guitar                               
Jiro Uezono:Gtr.2      
Ryan Manongdo:Bass       
Aeroll Cayetano:Drums   
            
Hard to play? Try these video lessons and learn fast. | Correct




comments powered by Disqus
↑ Back to top | Tablatures and chords are parodies/interpretations of the original songs. You may use it for private study, scholarship, research or language learning purposes only