» » »

Kamikazee, A.I.D.S Tabs (ver.1)

Artists:  A B C D E F G H I J K L M N O P Q R S T U V W X Y Z # 

A.I.D.S Tabs (ver.1)

Kamikazee Tabs
 Rating:
4/5 (4 votes)
A.I.D.S lessons Tabs too difficult? Try these video lessons and learn fast
                

Order:
Intro
Verse
Pre Chorus
Verse
Pre Chorus
Chorus
Bridge
Chorus tapos nong Bridge
Chorus

Intro:
Guitar 1
e|--------------------||
B|--------------------||
G|--6-6-6-6-6-6-6-9---||
D|--6-6-6-6-6-6-6-9---||
A|--4-4-4-4-4-4-4-7---||
E|--------------------||

e|----------------------------------------------------------------||
B|----------------------------------------------------------------||
G|----------------------------------------------------------------|| 4x
D|---11-11-11-11-11-11-14-14-14--7-7-7-7-7-7-9-9-9----------------||
A|---11-11-11-11-11-11-14-14-14--7-7-7-7-7-7-9-9-9----------------||
E|---9--9--9--9--9--9--12-12-12--5-5-5-5-5-5-7-7-7----------------||

Guitar 2 (after guitar 1 plays the 2nd time)
e|----------------------------------------------------------------||
B|-----------------------------12---------------------------------||
G|--9-9-9-8-8-8-9-9-9-8---8h9------9-8----------------------------|| (4x)
D|----------------------------------------------------------------||
A|----------------------------------------------------------------||
E|----------------------------------------------------------------||

Verse:
Guitar 1
e|----------------------------------------------------------------||
B|----------------------------------------------------------------||
G|----------------------------------------------------------------|| (4x)
D|---11-11-11-11-11-11-14-14-14--7-7-7-7-7-7-9-9-9----------------||
A|---11-11-11-11-11-11-14-14-14--7-7-7-7-7-7-9-9-9----------------||
E|---9--9--9--9--9--9--12-12-12--5-5-5-5-5-5-7-7-7----------------||

Guitar 2
(sa background paulit-ulit lng)
e|----------------------||
B|----------------------||
G|----------------------||
D|--11-11-9-9-11-11-----||
A|----------------------||
E|----------------------||

Pre-Chorus
Guitar 1
e|---------------------||
B|---------------------||
G|--9------------------||
D|--9---11---7---7-----||
A|--7---11---7---7-----||
E|------9----5---5-----||



Guitar 2
e|---------------------------------------------||
B|---------------------------------------------||
G|-9---9-11---11-13---13-14--14-13--11---------|| (2x)
D|-x---x--x----x--x----x--x---x--x---x---------||
A|-7---7--9----9-11---11-12--12-11---9---------||
E|---------------------------------------------||

e|---------------------------------------------------||
B|-9---9-11---11-13---13-14--14-13--14--16-----------||
G|-x---x--x----x--x----x--x---x--x---x---x-----------||
D|-7---7--9----9-11---11-12--12-11--12--14-----------||
A|---------------------------------------------------||
E|---------------------------------------------------||

Chorus
Guitar 1
e|---------------------||
B|---------------------||
G|--9------------------|| (2x)
D|--9---7---11---7-----||
A|--7---7---11---7-----||
E|------5----9---5-----||
Guitar 2 
Pareho din nong guitar 1 pero sa 2nd time ganito lng
e|---------||
B|---------||
G|---9-----||
D|---x-----||
A|---7-----||
E|---------||

Bridge
Guitar 1
e|-------------------||
B|-------------------||
G|---9-9-8-8-9-9-----|| paulit ulit lng
D|-------------------||
A|-------------------||
E|-------------------||
Guitar 2
e|---------------------||
B|---------------------||
G|---------------------|| kasabay nong guitar 1
D|---11-11-9-9-11-11---||
A|---------------------||
E|---------------------||

tapos nun sabaysabay clang mag
e|----------------------------------------------------------------||
B|----------------------------------------------------------------||
G|----------------------------------------------------------------|| (4x)
D|---11-11-11-11-11-11-14-14-14--7-7-7-7-7-7-9-9-9----------------||
A|---11-11-11-11-11-11-14-14-14--7-7-7-7-7-7-9-9-9----------------||
E|---9--9--9--9--9--9--12-12-12--5-5-5-5-5-5-7-7-7----------------||

Chorus tapos nung Bridge:
Guitar 1 
pareho lng sa chorus

Guitar 2

e|---------------------------------------------||
B|---------------------------------------------||
G|-9---9-11---11-13---13-14--14-13--11---------|| (2x)
D|-x---x--x----x--x----x--x---x--x---x---------||
A|-7---7--9----9-11---11-12--12-11---9---------||
E|---------------------------------------------||

e|---------------------------------------------------||
B|-9---9-11---11-13---13-14--14-13--14--16-----------||
G|-x---x--x----x--x----x--x---x--x---x---x-----------||
D|-7---7--9----9-11---11-12--12-11--12--14-----------||
A|---------------------------------------------------||
E|---------------------------------------------------||
tapos 
e|---------------------------------------------||
B|---------------------------------------------||
G|-9---9-11---11-13---13-14--14-13--11---------|| (2x)
D|-x---x--x----x--x----x--x---x--x---x---------||
A|-7---7--9----9-11---11-12--12-11---9---------||
E|---------------------------------------------||

e|--------------------------------------||
B|--------------------------------------||
G|--------------------------------------||
D|-6-6-6--7-7-7--9-9-9--6-6-6-7-7-9-9---|| (2x)
A|-6-6-6--7-7-7--9-9-9--6-6-6-7-7-9-9---||
E|-4-4-4--5-5-5--7-7-7--4-4-4-5-5-7-7---||

Woohoo yehey tapos na..
Shout out to all my ateneo grade school graduating batchmates
Kung nagustuhan nyo ung tab plssssss vote, it will make my sad and insignificant life a bit happier 
            
Submit corrections

comments powered by Disqus
↑ Back to top | Kamikazee Tabs for A.I.D.S. Lyrics for acoustic guitar and electric guitar. Tablatures and chords are parodies/interpretations of the original songs. You may use it for private study, scholarship, research or language learning purposes only