>
 >
The Inquisitor

The Inquisitor Guitar Tabs

Kamelot - The Inquisitor chords, tabs, tablatures, lyrics

Guitar lessons | Add/correct | Request | Top 50 tabs Artists:  A B C D E F G H I J K L M N O P Q R S T U V W X Y Z 0-9

The Inquisitor Guitar Tabs – Kamelot

CD, Sheet music, Poster

Do you like The Inquisitor? Share with your friends now
Tabs
No tab for this anywhere so I thought I'd post a similar/base for the song tabs to go from.
G1-Guitar1 (Lead/Gain/distortion.)
G2-
G3-Guitar2 (Rhythm, slight 

Legend

. Palm Mute
~ Sustain
] deaden note
/ Deaden vai slide(forget what it's called... slide down? idk)
x Mute note

Tab Setup, Standard Halfstep down, 6-string.
eb|-6-|
Bb|-5-|
Gb|-4-|
Db|-3-|
Ab|-2-|
Eb|-1-|




 Pre-Intro/chorus Lead Riff.
G2/Rhythm
|---------------------------|
|---------------------------|
|---------------------------|
|-6~~~~~~6~~~~~~----6-----6-|
|-6~~~~~~6~~~~~~----6-----6-|
|-4~~~~~~4~~~~~~4-4-4-4-4-4-|
                . .   . .

 Intro/chorus
G1/Lead (listen for timing, repeat as needed)
Eb Bb Gb Db Ab Eb
|---------------------------------------------------|
|--------------------------------------5h6p5p3-6~~5~|
|-5-6-5-3-5~~~4h5p4p2-4-3---5-6-5-3-5~~-------------|
|---------------------------------------------------|
|---------------------------------------------------|
|---------------------------------------------------|

|---------------------------------------------------|
|---------------------------------------------------|
|~5-6-5-3-5~~4-5-4-2-4-5~~4]-5-6-5-3-5~~------------|
|---------------------------------------10-9-7-9-10~|
|---------------------------------------------------|
|---------------------------------------------------|

G2/Rhythm, (You'll know it when you hear it)
|--------------------|
|--------------------|
|--------------------|
|--------------------|
|-6-7-6-4-6brbrbrbr--|
|--------------------|

|---------------|
|---------------|
|---------------|
|---------------|
|-6-7-6-4-6~~~/-|
|---------------|
 

 Verse 1.
No real idea, but this sounds okay.
G3
|-3-OR-2|
|-3----3|
|-0----2|
|-0----0|
|-2----x|
|-3----x|

"..Judge behind me watching my every move...."
G2 Verses are pretty much this.
|------------------------------|
|------------------------------|
|------------------------------|
|-6~~~~~6~~~~~9~~~~8~~9~7~8~6~~|
|-6~~~~~6~~~~~9~~~~8~~9~7~8~6~~|
|-4~~~~~4~~~~~7~~~~6~~7~5~6~4~~|

Prechorus

G2
|----------------------------|
|----------------------------|
|----------------------------|
|-----10----8-----9-----7-6~~|
|-----10----8-----9-----7-6~~|
|-8-8-8-6-6-6-7-7-7-5-5-5-4~~|
  . .   . .   . .   . . 
Chorus
G1
|---------------------------------------------------|
|--------------------------------------5h6p5p3-6~~5~|
|-7-8-7-5-7~~~6h7p6p4-6-7---5-6-5-3-5~~-------------|
|---------------------------------------------------|
|---------------------------------------------------|
|---------------------------------------------------|

|---------------------------------------------------|
|---------------------------------------------------|
|~5-6-5-3-5~~4-5-4-2-4-5~~4]-5-6-5-3-5~~------------|
|---------------------------------------10-9-7-9-10-|
|---------------------------------------------------|
|---------------------------------------------------|

G2/Rhythm 
|--------------|[ect]
|--------------|[ect]
|--------------|[ect]
|-444--444--444|[ect]
|-444--444--444|[ect]
|-222--222--222|[ect]
  ...  ...  ...

G2 will occasion do this, you'll know it when you hear it.
|------------|
|------------|
|------------|
|------------|
|-6-7-6-4-6--|
|------------|
  . . . . .  

Pre solo
G2
|------------------------------------------|
|------------------------------------------|
|-4~5~7s89~~8s7~~s6s8~~~9s10s9-7s8s7-5s6s5-|
|-x-x-x-xx--x-x---x-x---x-x--x-x-x-x-x-x-x-|
|-2~3~5s67~~6s5~~s4s6~~~7s8-s7-5s6s5-3s4s5-|
|------------------------------------------|

Solo
Chords,muting/slashing and timing varies.
|-------------------------|
|-------------------------|
|-------------------------|
|-4-4--x-x-4-4------4-44--|
|-4-4--x-x-4-4------4-44--|
|-2-2--x-x-2-2------2-22--|


End of solo
|-----------------------|
|-----------------------|
|-4~5~7s89~~8s7~~s6s8~~~|
|-x-x-x-xx--x-x---x-x---|
|-2~3~5s67~~6s5~~s4s6~~~|
|-----------------------|

|-----------------------------------------------------|
|-------------------------10-9-10--6-8-6--4-5-4--2-4-2|
|-4~5~78-8s9~~8s7~~s6s8~~~----------------------------|
|-x-x-xx-x-x-x-x---x-x--------------------------------|
|-2~3~56-6s7~~6s5~~s4s6~~~----------------------------|
|-----------------------------------------------------|

Tawx





Comments


Popular Kamelot tabs & chords
On The Coldest Winter Night 2 Bass Tabs
Haunting Somewhere In Time Chords
A Sailorman's Hymn Tabs
Kamelots Glory Tabs
The Haunting Tabs
The Zodiac Intro Tabs
Until Kingdom Come Intro Tabs
When The Lights Are Down 1 Tabs
Abandoned Ukulele
Epilogue Ukulele


Song lyrics



↑ Back to top | Tablatures and chords are parodies/interpretations of the original songs. You may use it for private study, scholarship, research or language learning purposes only
© 2014 AZChords.com Contact us | Privacy policy | DMCA | Add/correct tabs | Request tabs | Top 50 tabs