» » »

Kamelot, The Human Stain Bass tabs (ver.1)

Artists:  A B C D E F G H I J K L M N O P Q R S T U V W X Y Z # 

The Human Stain Bass tabs (ver.1)

Kamelot Tabs
Rating:
0/5 (0 votes)
The Human Stain lessons Tabs too difficult? Try these video lessons and learn fast
                ---------------------------------------------------------------------------
                        THE HUMAN STAIN - Kamelot
---------------------------------------------------------------------------
Tuning: Bass Drop C (C G C F)

Intro x4
F |----------------------------------|
C |----------------------------------|
G |----------------------------------|
C |--0-0----1-1----0-0-1-0----0-1-0--|

F |----------------------------------|
C |----------------------------------|
G |----------------------------------|
C |--0-0----1-1----0-0-1-0----000-1--|

Rest for 8 bars
Verse x3
F |----------------------------|
C |----------------------------|
G |----------------------------|
C |--0-0----0-0----0-0----0-0--|

Verse Transition
F |-------------------------|
C |-------------------------|
G |-------------------------|
C |-8----------5------------|

Chorus
F |----------------------------------|
C |----------------------------------|
G |----------------------------------|
C |-8-8-8-8-8-8-8-8--5-5-5-5-5-5-5-5-|

F |----------------------------------|
C |----------------------------------|
G |----------------------------------|
C |-0-0-0-0-0-0-0-0--0-0-0-0-0-0-0-0-|

F |----------------------------------|
C |----------------------------------|
G |----------------------------------|
C |-8-8-8-8-8-8-8-8--5-5-5-5-5-5-5-5-|

F |----------------------------------|
C |----------------------------------|
G |----------------------------------|
C |-0-0-0-0-0-0-0-0--3-3-3-3-3-3-3-3-|

F |----------------------------------|
C |----------------------------------|
G |----------------------------------|
C |-8-8-8-8-8-8-8-8--5-5-5-5-5-5-5-5-|

F |----------------------------------|
C |----------------------------------|
G |----------------------------------|
C |-0-0-0-0-0-0-0-0--0-0-0-0-0-0-0-0-|

F |----------------------------------|
C |----------------------------------|
G |----------------------------------|
C |-8-8-8-8-8-8-8-8--7-7-7-7-7-7-7-7-|

F |----------------------------------|
C |----------------------------------|
G |----------------------------------|
C |-5-5-5-5-5-5-5-5--5-5-5-5-5-5-5-5-|

Rest for 4 Bars
Repeat Verse x3
Repeat Verse Transition
Repeat Chorus

Repeat Intro
Repeat Verse x3
Repeat Verse Transition
Repeat Chorus

 Key:
 /  slide up
 \  slide down
 h  hammer-on
 p  pull-off
 ~  vibrato
 *  pinch harmonic
 x  Mute note
==========================================================================
            

comments powered by Disqus
↑ Back to top | Kamelot Bass for The Human Stain. Lyrics for acoustic guitar and electric guitar. Tablatures and chords are parodies/interpretations of the original songs. You may use it for private study, scholarship, research or language learning purposes only