» » »

The Human Stain Tabs (ver.1)

Artists:  A B C D E F G H I J K L M N O P Q R S T U V W X Y Z # 

The Human Stain Tabs (ver.1)

Kamelot
Rating:
0/5 (0 votes)

Hard to play? Try these video lessons and learn fast.
                ---------------------------------------------------------------------------
---------------------------------------------------------------------------

Intro x4
B |---------------------------------|
Gb|---------------------------------|
D |---------------------------------|
A |---------------------------------|
E |-3-3-x-x-4-4-x-x-3-3-4-3---x-3-x-|
B |-1-1-x-x-2-2-x-x-1-1-2-1---x-1-x-|

B |---------------------------------|
Gb|---------------------------------|
D |---------------------------------|
A |---------------------------------|
E |-3-3-x-x-4-4-x-x-3-3-4-3---xx3-4-|
B |-1-1-x-x-2-2-x-x-1-1-2-1---xx1-2-|

Rest for 8 Bars
Verse x3 
B |---------------------------------|
Gb|---------------------------------|
D |---------------------------------|
A |---------------------------------|
E |-3-3-x-x-3-3-x-x-3-3-x-x-3-3-x-x-|
B |-1-1-x-x-1-1-x-x-1-1-x-x-1-1-x-x-|

Verse Transition
B |--------------------------|
Gb|--------------------------|
D |-6-----------3------------|
A |-6-----------3------------|
E |-4-----------1------------|
B |--------------------------|

Chorus
B |------------------------------------|
Gb|------------------------------------|
D |-6-6-6-6-6-6-6-6-6--3-3-3-3-3-3-3-3-|
A |-6-6-6-6-6-6-6-6-6--3-3-3-3-3-3-3-3-|
E |-4-4-4-4-4-4-4-4-4--1-1-1-1-1-1-1-1-|
B |------------------------------------|

B |----------------------------------|
Gb|----------------------------------|
D |----------------------------------|
A |-3-3-3-3-3-3-3-3--3-3-3-3-3-3-3-3-|
E |-3-3-3-3-3-3-3-3--3-3-3-3-3-3-3-3-|
B |-1-1-1-1-1-1-1-1--1-1-1-1-1-1-1-1-|

B |------------------------------------|
Gb|------------------------------------|
D |-6-6-6-6-6-6-6-6-6--3-3-3-3-3-3-3-3-|
A |-6-6-6-6-6-6-6-6-6--3-3-3-3-3-3-3-3-|
E |-4-4-4-4-4-4-4-4-4--1-1-1-1-1-1-1-1-|
B |------------------------------------|

B |----------------------------------|
Gb|----------------------------------|
D |----------------------------------|
A |-3-3-3-3-3-3-3-3--6-6-6-6-6-6-6-6-|
E |-3-3-3-3-3-3-3-3--6-6-6-6-6-6-6-6-|
B |-1-1-1-1-1-1-1-1--4-4-4-4-4-4-4-4-|

B |------------------------------------|
Gb|------------------------------------|
D |-6-6-6-6-6-6-6-6-6--3-3-3-3-3-3-3-3-|
A |-6-6-6-6-6-6-6-6-6--3-3-3-3-3-3-3-3-|
E |-4-4-4-4-4-4-4-4-4--1-1-1-1-1-1-1-1-|
B |------------------------------------|

B |----------------------------------|
Gb|----------------------------------|
D |----------------------------------|
A |-3-3-3-3-3-3-3-3--3-3-3-3-3-3-3-3-|
E |-3-3-3-3-3-3-3-3--3-3-3-3-3-3-3-3-|
B |-1-1-1-1-1-1-1-1--1-1-1-1-1-1-1-1-|

B |----------------------------------|
Gb|----------------------------------|
D |-6-6-6-6-6-6-6-6--5-5-5-5-5-5-5-5-|
A |-6-6-6-6-6-6-6-6--5-5-5-5-5-5-5-5-|
E |-4-4-4-4-4-4-4-4--3-3-3-3-3-3-3-3-|
B |----------------------------------|

B |----------------------------------|
Gb|----------------------------------|
D |-3-3-3-3-3-3-3-3--3-3-3-3-3-3-3-3-|
A |-3-3-3-3-3-3-3-3--3-3-3-3-3-3-3-3-|
E |-1-1-1-1-1-1-1-1--1-1-1-1-1-1-1-1-|
B |----------------------------------|

Rest for 12 bars

Verse Variation
Verse x1 
B |---------------------------------|
Gb|---------------------------------|
D |---------------------------------|
A |---------------------------------|
E |-3-3-x-x-3-3-x-x-3-3-x-x-3-3-x-x-|
B |-1-1-x-x-1-1-x-x-1-1-x-x-1-1-x-x-|

B |------------------|
Gb|------------------|
D |------------------|
A |------------------|
E |-6-6-x-x-----6*~~-|
B |-4-4-x-x-6*~~-----|

B |---------------------------------|
Gb|---------------------------------|
D |---------------------------------|
A |---------------------------------|
E |-3-3-x-x-3-3-x-x-3-3-x-x-3-3-x-x-|
B |-1-1-x-x-1-1-x-x-1-1-x-x-1-1-x-x-|

Verse Transition
B |--------------------------|
Gb|--------------------------|
D |-6-----------3------------|
A |-6-----------3------------|
E |-4-----------1------------|
B |--------------------------|

Repeat Chorus
Repeat Intro

Solo
B |----------------------------------------------|
Gb|-18p17-18----13~~-----------------------------|
D |-------------------16-17-18-17-16h17----14~~--|
A |----------------------------------------------|
E |----------------------------------------------|
B |----------------------------------------------|

B |---------------------------------------------------------------|
Gb|----13-17s18~~-----------------------18---17-17--14-14--13-13--|
D |-14------------17~~--16-17-18-17-16----------------------------|
A |---------------------------------------------------------------|
E |---------------------------------------------------------------|
B |---------------------------------------------------------------|

Repeat Verse Variation
Repeat Chorus

 Key:
 /  slide up
 \  slide down
 h  hammer-on
 p  pull-off
 ~  vibrato
 *  pinch harmonic
 x  Mute note
==========================================================================
            
Hard to play? Try these video lessons and learn fast. | Correct




comments powered by Disqus
↑ Back to top | Tablatures and chords are parodies/interpretations of the original songs. You may use it for private study, scholarship, research or language learning purposes only