>
 >
The Great Pandemonium

The Great Pandemonium Guitar Tabs

Kamelot - The Great Pandemonium chords, tabs, tablatures, lyrics

Guitar lessons | Add/correct | Request | Top 50 tabs Artists:  A B C D E F G H I J K L M N O P Q R S T U V W X Y Z 0-9

The Great Pandemonium Guitar Tabs – Kamelot

CD, Sheet music, Poster

Do you like The Great Pandemonium? Share with your friends now
Tabs
                              THE GREAT PANDEMONIUM
                             As recorded by Kamelot
                  (From the 2010 Album POETRY FOR THE POISONED)

Music by Kamelot

Gtr I (D G C F A D) - 'Rhythm'
Gtr II (D G C F A D) - 'Lead 1'
Gtr III (D G C F A D) - 'Clean'

 Intro
  Q=124
 4/4
  Gtr I
  Wx8
|--------|
|--------|
|--------|
|--------|
|--------|
|--------|


   4/4
    Gtr I
    PM--|        PM--|           PM
    S S S S Q  E S S S S S S   E S S Q  H
||---------------------------|---------------|
||o--------------------------|---------------|
||---------------------------|---------------|
||---------------------------|---------------|
||o-2-2-2-2------2-2-2-2---x-|-2-2-2---------|
||--0-0-0-0------0-0-0-0---x-|-0-0-0---------|


  PM--|        PM--|           PM            PM
  S S S S Q  E S S S S S S   E S S S S S S S S S S Q
|--------------------------|---------------------------||
|--------------------------|--------------------------o||
|--------------------------|---------------------------||
|--------------------------|---------------------------||
|-2-2-2-2------2-2-2-2---x-|-2-2-2---2---2---2-2-2-3--o||
|-0-0-0-0------0-0-0-0---x-|-0-0-0---0---0---0-0-0-1---||


   Chorus
                    ~
    S S S S S S S S E S S S S S S   E S S S S S S S S S S +E  E
||--------------------------------|------------------------------|
||o-------------------------------|------------------------------|
||--------------------------------|------------------------------|
||--------------------------------|------------------------------|
||o---------7h8p7p5-7-------------|-------7h8p7p5-7p5------------|
||--0-0-0-0-----------0-0-0-0-0-0-|-0-0-0-------------7-4-(4)-7--|


                                 1.
                  ~
  S S S S S S S S E S S S S S S   E S S S S S S S S S S +E  E
|-------------------------------|------------------------------||
|-------------------------------|-----------------------------o||
|-------------------------------|------------------------------||
|-------------------------------|------------------------------||
|---------7h8p7p5-7-------------|-------7h8p7p5-7p5---------3-o||
|-0-0-0-0-----------0-0-0-0-0-0-|-0-0-0-------------7-0-(0)-1--||


  2.
  E S S S S S S S S S S +E  E
|-----------------------------|
|-----------------------------|
|-----------------------------|
|---------------7p6-----------|
|-------7h8p7p5-----7---------|
|-0-0-0---------------5-(5)-4-|


   Verse
    PM-----------------------------------|
    S S E  S S  S E    S S E E  S   E S  S Q    H
||--------------------------------|----------------------|
||o-------------------------------|----------------------|
||--------------------------------|----------------------|
||--------------------------------|----------------------|
||o-2-2-2--2-2--2-2------2-2-2--2-|-2-2--2---------------|
||--0-0-0--0-0--0-0------0-0-0--0-|-0-0--0---------------|
|
|   Gtr III
|   e   e.   e.     e.     e E.     e e.     e. e. e E.
||--------------------------------|----------------------|
||o-x---5----5------5------5-5----|-x-5------5--5--5-3---|
||--x---4----4------4------4-4----|-x-4------4--4--4-2---|
||--x---2----2------2------2-2----|-x-2------2--2--2-0---|
||o-------------------------------|----------------------|
||--------------------------------|----------------------|


                                  1.
  PM-----------------------------------|
  S S E  S S  S E    S S E E  S   E S  S Q    H
|-------------------------------|-----------------------||
|-------------------------------|----------------------o||
|-------------------------------|-----------------------||
|-------------------------------|-----------------------||
|-2-2-2--2-2--2-2------2-2-2--2-|-2-2--2---------------o||
|-0-0-0--0-0--0-0------0-0-0--0-|-0-0--0----------------||
|
| e   e.   e.     e.     e E.     e e.     e. e. e E.
|-------------------------------|-----------------------||
|-x---5----5------5------5-5----|-x-5------5--5--5-6---o||
|-x---4----4------4------4-4----|-x-4------4--4--4-5----||
|-x---2----2------2------2-2----|-x-2------2--2--2-3----||
|-------------------------------|----------------------o||
|-------------------------------|-----------------------||


  2.
  PM---|
  E S  S Q    E  S S  Q
|---------------------------|
|---------------------------|
|---------------------------|
|---------------------------|
|-2-2--2--------------------|
|-0-0--0---------x-x-12\----|
|
| e e.     e. e.   e     E.
|---------------------------|
|-x-5------5--5----5-----6--|
|-x-4------4--4----4-----5--|
|-x-2------2--2----2-----3--|
|---------------------------|
|---------------------------|


                                                       ~~~~
   S  T T  S T T  S  T T S  S  T T  S T T  S  T T  S   E
|---------------------------------------------------------|
|---------------------------------------------------------|
|---------------------------------------------------------|
|---------------------------------------------------------|
|----------------------------------------------------[10]-|
|-12p10p0-10-9p0-12p10p0-0-12p10p0-10-9p0-12p10p0-10------|
|
|  W
|---------------------------------------------------------|
|---------------------------------------------------------|
|---------------------------------------------------------|
|---------------------------------------------------------|
|---------------------------------------------------------|
|---------------------------------------------------------|


   Pre-Chorus
    S S S S S S S S S S S S S S S S   S S S S S S S S S S S S S S S S
||----------------------------------|---------------------------------|
||o---------------------------------|---------------------------------|
||----------------------------------|---------------------------------|
||----------------------------------|---------------------------------|
||o-7h8-0-7h8-0-7h8-0-7h8-0-7h8p7-0-|-5h7-0-5h7-0-5h7-0-5h7-0-5h7p5-0-|
||----------------------------------|---------------------------------|


                                    1.
                                                            ~~
  S S S S S S S S S S S S S S S S   S S S S S S S S S S S S E.S
|---------------------------------|------------------------------||
|---------------------------------|-----------------------------o||
|---------------------------------|------------------------------||
|---------------------------------|------------------------------||
|-3h5-0-3h5-0-3h5-0-3h5-0-3h5p3-0-|-8p7p0-7p5p0-5p3p0-3p2p0-----o||
|---------------------------------|-------------------------1p0--||


  2.
          PM------|           PM----|
  |----6----| |----6----| |----6----| |----6----|
  S S S S S S S S S S S S S S S S S S S S S S S S
|-------------------------------------------------|
|-------------------------------------------------|
|-------------------------------------------------|
|-------------------------------------------------|
|-8p7p5-7-5-3-5-3-1-1h3-0h1p0---------------------|
|-----------------------------3-1-3-1-1h3-1p0h1p0-|


 Chorus
                  ~
  S S S S S S S S E S S S S S S   E S S S S S S S S S S +E  E
|-------------------------------|-----------------------------|
|-------------------------------|-----------------------------|
|-------------------------------|-----------------------------|
|-------------------------------|-----------------------------|
|---------7h8p7p5-7-------------|-------7h8p7p5-7p5-----------|
|-0-0-0-0-----------0-0-0-0-0-0-|-0-0-0-------------7-4-(4)-7-|


                  ~
  S S S S S S S S E S S S S S S   E S S S S S S S S S S +E  E
|-------------------------------|-----------------------------|
|-------------------------------|-----------------------------|
|-------------------------------|-----------------------------|
|-------------------------------|---------------7p6-----------|
|---------7h8p7p5-7-------------|-------7h8p7p5-----7---------|
|-0-0-0-0-----------0-0-0-0-0-0-|-0-0-0---------------5-(5)-4-|


   Verse
    PM-----------------------------------|
    S S E  S S  S E    S S E E  S   E S  S Q    H
||--------------------------------|----------------------|
||o-------------------------------|----------------------|
||--------------------------------|----------------------|
||--------------------------------|----------------------|
||o-2-2-2--2-2--2-2------2-2-2--2-|-2-2--2---------------|
||--0-0-0--0-0--0-0------0-0-0--0-|-0-0--0---------------|
|
|   Gtr III
|   e   e.   e.     e.     e E.     e e.     e. e. e E.
||--------------------------------|----------------------|
||o-x---5----5------5------5-5----|-x-5------5--5--5-3---|
||--x---4----4------4------4-4----|-x-4------4--4--4-2---|
||--x---2----2------2------2-2----|-x-2------2--2--2-0---|
||o-------------------------------|----------------------|
||--------------------------------|----------------------|


                                  1.
  PM-----------------------------------|
  S S E  S S  S E    S S E E  S   E S  S Q    H
|-------------------------------|-----------------------||
|-------------------------------|----------------------o||
|-------------------------------|-----------------------||
|-------------------------------|-----------------------||
|-2-2-2--2-2--2-2------2-2-2--2-|-2-2--2---------------o||
|-0-0-0--0-0--0-0------0-0-0--0-|-0-0--0----------------||
|
| e   e.   e.     e.     e E.     e e.     e. e. e E.
|-------------------------------|-----------------------||
|-x---5----5------5------5-5----|-x-5------5--5--5-6---o||
|-x---4----4------4------4-4----|-x-4------4--4--4-5----||
|-x---2----2------2------2-2----|-x-2------2--2--2-3----||
|-------------------------------|----------------------o||
|-------------------------------|-----------------------||


  2.
  PM---|
  E S  S Q    E  S S  Q
|---------------------------|
|---------------------------|
|---------------------------|
|---------------------------|
|-2-2--2--------------------|
|-0-0--0---------x-x-12\----|
|
| e e.     e. e.   e     E.
|---------------------------|
|-x-5------5--5----5-----6--|
|-x-4------4--4----4-----5--|
|-x-2------2--2----2-----3--|
|---------------------------|
|---------------------------|


                                                       ~~~~
   S  T T  S T T  S  T T S  S  T T  S T T  S  T T  S   E
|---------------------------------------------------------|
|---------------------------------------------------------|
|---------------------------------------------------------|
|---------------------------------------------------------|
|----------------------------------------------------[10]-|
|-12p10p0-10-9p0-12p10p0-0-12p10p0-10-9p0-12p10p0-10------|
|
|  W
|---------------------------------------------------------|
|---------------------------------------------------------|
|---------------------------------------------------------|
|---------------------------------------------------------|
|---------------------------------------------------------|
|---------------------------------------------------------|


                                ~
  S S S S T T S S T T S S T T S Q
|----------------------------------|
|----------------------------------|
|----------------------------------|
|----------------------------------|
|-7h8-0-5h7p5-0-3h5p3-0-2h3p2-0----|
|-------------------------------1--|


 Pre-Chorus
  W          W
|----------|------|
|----------|------|
|----------|------|
|-7--------|-5----|
|-5--------|-3----|
|-5--------|-3----|


              PM|                           ~~
  H.      S S S S   S S S S S S S S S S S S E.S
|-----------------|-----------------------------|
|-----------------|-----------------------------|
|-----------------|-----------------------------|
|-3---------------|-----------------------------|
|-1-------3-5-3-0-|-8p7p0-7p5p0-5p3p0-3p2p0-----|
|-1---------------|-------------------------1p0-|


  S S S S S S S S S S S S S S S S   S S S S S S S S S S S S S S S S
|---------------------------------|----------------------------------|
|---------------------------------|----------------------------------|
|---------------------------------|----------------------------------|
|---------------------------------|----------------------------------|
|-7h8-0-7h8-0-7h8-0-7h8-0-7h8p7-0-|-5h7-0-5h7-0-5h7-0-5h7-0-5h7p5-0--|
|---------------------------------|----------------------------------|


  S S S S S S S S S S S S S S S S
|---------------------------------|
|---------------------------------|
|---------------------------------|
|---------------------------------|
|-3h5-0-3h5-0-3h5-0-3h5-0-3h5p3-0-|
|---------------------------------|


          PM------|           PM----|
  |----6----| |----6----| |----6----| |----6----|
  S S S S S S S S S S S S S S S S S S S S S S S S
|-------------------------------------------------|
|-------------------------------------------------|
|-------------------------------------------------|
|-------------------------------------------------|
|-8p7p5-7-5-3-5-3-1-1h3-0h1p0---------------------|
|-----------------------------3-1-3-1-1h3-1p0h1p0-|


   Chorus
                                                                ~~~
    |----6----|     |----6----|
    S S S S S S Q   S S S S S S  Q     S S S S S S S S S S E E  E
||-----------------------------------|-----------------------------|
||o----------------------------------|-----------------------------|
||--------------9\--------------10\--|-----------------------------|
||--------------9\--------------10\--|---------------------6-------|
||o-------------7\---------------8\--|---------7-----8-------8-[7]-|
||--0-0-0-0-0-0-----0-0-0-0-0-0------|-0-0-0-0---0-0---0-0---------|


  |----6----|     |----6----|
  S S S S S S Q   S S S S S S Q    S S S S S S S S S S E E E
|--------------------------------|-----------------------------||
|--------------------------------|----------------------------o||
|-------------9\-----------------|-----------------------------||
|-------------9\--------------3--|-----------------------------||
|-------------7\--------------3--|----------------------------o||
|-0-0-0-0-0-0-----0-0-0-0-0-0-1--|-0-0-0-0-1-0-0-0-0-0-5-4-1---||


 Interlude
  Wx7
|--------|
|--------|
|--------|
|--------|
|--------|
|--------|


          PM------|           PM----|
  |----6----| |----6----| |----6----| |----6----|
  S S S S S S S S S S S S S S S S S S S S S S S S
|-------------------------------------------------|
|-------------------------------------------------|
|-------------------------------------------------|
|-------------------------------------------------|
|-8p7p5-7-5-3-5-3-1-1h3-0h1p0---------------------|
|-----------------------------3-1-3-1-1h3-1p0h1p0-|


 Guitar Solo
  PM----------------------------|
  S S E S S S E S S E E S   E S S  Q             H
|-------------------------|-------------------------------------------|
|-------------------------|-------------------------------------------|
|-------------------------|-------------------------------------------|
|-------------------------|-------------------------------------------|
|-2-2-2-2-2-2-2---2-2-2-2-|-2-2-2-------------------------------------|
|-0-0-0-0-0-0-0---0-0-0-0-|-0-0-0-------------------------------------|
|
| Gtr II
|                                  |----6-----|  |----6----|
| W                         Q      S  S S S S S  S S S S S S S S S S
|-------------------------|-------12p10p8s7h8p7-----------------------|
|-------------------------|---------------------10p8p6h8p6s5----------|
|-------------------------|----------------------------------7p5s4h5p=|
|-------------------------|-------------------------------------------|
|-------------------------|-------------------------------------------|
|-------------------------|-------------------------------------------|


  PM----------------------------------
  S  S E S S S E S S E     E       S
|------------------------------------|
|------------------------------------|
|------------------------------------|
|------------------------------------|
|-2--2-2-2-2-2-2---2-2-----2-------2-|
|-0--0-0-0-0-0-0---0-0-----0-------0-|
|
| ~~
| H.                   +E     E
|------------------------------------|
|------------------------------------|
|-4--------------------(4)s==14b16---|
|------------------------------------|
|------------------------------------|
|------------------------------------|


 ------|
    E  S S  +Q         Q             Q
|--------0--(0)--------------------------------------|
|--------0--(0)--------------------------------------|
|--------x--(x)--------------------------------------|
|--------2--(2)--------------------------------------|
|---2--2-2--(2)--------x/----------------------------|
|---0--0-0--(0)--------x/----------h17\--------------|
|
|            |--3---|  |----5----|   |-----6------|
|  +Q       +E   E  E  E   S  S  S   E   S  S  S  S
|------------------12-15-----------------------------|
|---------------13--------18h20p17h=18--15h17p15h17--|
|-(14)-----(14)--------------------------------------|
|----------------------------------------------------|
|----------------------------------------------------|
|----------------------------------------------------|


   W                                W
|--------------------------------|---------------------------------|
|--------------------------------|---------------------------------|
|--------------------------------|---------------------------------|
|--7-----------------------------|--5------------------------------|
|--7-----------------------------|--5------------------------------|
|--5-----------------------------|--3------------------------------|
|
|  Q.      Q   +E      +E   S  S    Q.    E  E  S  S  +S   S  S  S
|---------19--(19)b20r(19)-12----|---------------------------------|
|-15b17-----------------------13p|=12----13-12-13-12-(12)-12-------|
|--------------------------------|---------------------------------|
|--------------------------------|---------------------------17-19-|
|--------------------------------|---------------------------------|
|--------------------------------|---------------------------------|


   W
|-------------------------------------------------------|
|-------------------------------------------------------|
|-------------------------------------------------------|
|--2----------------------------------------------------|
|--2----------------------------------------------------|
|--0----------------------------------------------------|
|
|                                               |--3--|
|  S  S  S  S  S  S  S  S  S  S  T  T  S  S  S  S  S  S
|-------------------------------------------------------|
|-------------------17-------17-18p17----18s20-18p17----|
|-16-17-19-16-17-19----17-19----------19-------------19-|
|-------------------------------------------------------|
|-------------------------------------------------------|
|-------------------------------------------------------|


                                                            PM----|
   S     S  S    S     S    S  S    S     S  S       S   S  S S S S
|---------------------------------------------------------------------|
|---------------------------------------------------------------------|
|---------------------------------------------------------------------|
|---------------------------------------------------------------------|
|---------------------------------------------------------------------|
|-10h===12p=0----8h===10p===0--7h===8p====0--7h======8p==0--3-0-2-0---|
|
|     T                   T                                 ~~
|  |-------6--------|  |-------6-------|
|  S  E     S  S    S  S  E    S  S    S  S  S      +E      Q
|-------------------------------------------19b20==(19)r---19---------|
|----22p===20p18p==17----24p==22p20p==18------------------------------|
|-17------------------19-----------------21---------------------------|
|---------------------------------------------------------------------|
|---------------------------------------------------------------------|
|---------------------------------------------------------------------|


   W
|-------------------------------------------------|
|-------------------------------------------------|
|-------------------------------------------------|
|--7----------------------------------------------|
|--7----------------------------------------------|
|--5----------------------------------------------|
|
|  S  S  S  S  S  S  S  S  S  S  S  S  S  S  S  S
|-19-20-19-20----20----20----20----20----20----20-|
|-------------22----20----18----17----------------|
|-------------------------------------19----17----|
|-------------------------------------------------|
|-------------------------------------------------|
|-------------------------------------------------|


   W
|---------------------------------------------------------------------------|
|---------------------------------------------------------------------------|
|--5------------------------------------------------------------------------|
|--5------------------------------------------------------------------------|
|--3------------------------------------------------------------------------|
|--3------------------------------------------------------------------------|
|
|  ~~                            T              T           T     T
|       |-------6-------|
|  Q   +S   S  S  S  S  S  T  T  T  T  T  T  T  T  T  T  T  T  T  T  T  T
|---------------------------------------------------------------------------|
|----------------------17h18h20-22p20p18p17h20-22p20p18p17-22p20-22p20p18---|
|-16--(16)----16h17h19------------------------------------------------------|
|----------19---------------------------------------------------------------|
|---------------------------------------------------------------------------|
|---------------------------------------------------------------------------|


   W
|--1------------------------------------------|
|--1------------------------------------------|
|--x------------------------------------------|
|--3------------------------------------------|
|--3------------------------------------------|
|--1------------------------------------------|
|
|  S  S  Q.    S T  S T  S T  S T  T  T  T  T
|-------22----20---19---20---22---20h22p20p19-|
|-18s20---------------------------------------|
|---------------------------------------------|
|---------------------------------------------|
|---------------------------------------------|
|---------------------------------------------|


   S  S  S     S S S S S   S   S  S    S S S  S    S
|----------------------------------------------------|
|----------------------------------------------------|
|----------------------------------------------------|
|----------------------------------------------------|
|--7h=8p=0-----5h7p0-3h5p==0---2h=3p===0-2h3p=2p===0-|
|----------------------------------------------------|
|
|                          ~~~~~              ~~~~~
|  S  S  Q.               +E      Q           E
|----19----------------------------------------------|
|-22----22b24============(22)r---24b25-------24b25---|
|----------------------------------------------------|
|----------------------------------------------------|
|----------------------------------------------------|
|----------------------------------------------------|


   W
|-------------------------------------------------|
|-------------------------------------------------|
|-------------------------------------------------|
|--7----------------------------------------------|
|--7----------------------------------------------|
|--5----------------------------------------------|
|
|  S  S  S  S  S  S  S  S  S  S  S  S  S  S  S  S
|-------15-------15-------15-------15-------15----|
|-13p12----13p12----13p12----13p12----13p12----13-|
|-------------------------------------------------|
|-------------------------------------------------|
|-------------------------------------------------|
|-------------------------------------------------|


   W
|--------------------------------------------------|
|--------------------------------------------------|
|--------------------------------------------------|
|--5-----------------------------------------------|
|--5-----------------------------------------------|
|--3-----------------------------------------------|
|
|  S  S  S  S  S  S  S  S  S  S  S  S  S  S  S  S
|-------17-------17-------17-------17-------17-----|
|-13s15----15p13----15p13----15p13----15p13----15--|
|--------------------------------------------------|
|--------------------------------------------------|
|--------------------------------------------------|
|--------------------------------------------------|


   W
|-----------------------------------------------|
|-----------------------------------------------|
|-----------------------------------------------|
|--2--------------------------------------------|
|--2--------------------------------------------|
|--0--------------------------------------------|
|
|  S  S  S  S  S  S  S  S  S  S  S  S  S  S  E
|-------19-------19-------19-------19-------19\-|
|-15s17----17p15----17p15----17p15----17p15-----|
|-----------------------------------------------|
|-----------------------------------------------|
|-----------------------------------------------|
|-----------------------------------------------|


                                                                  PM--------------|
    S  S     S     S     S     S     S     S     S S   S      S   S     S     S   S
|------------------------------------------------------------------------------------|
|------------------------------------------------------------------------------------|
|------------------------------------------------------------------------------------|
|------------------------------------------------------------------------------------|
|------------------------------------------------------------------------------------|
|--10h12p====0-----8h===10p====0-----7h====8p====0-7h==8p=====0---3-----0-----2---0--|
|
|                                                                 \7/   \7/
|   S  T  T  T  T  T  T  T  T  T  T  T  T  T  T  E    +E         +S    +S    +E
|-/20-20-20-18-17-15-17-15-13-15-13-12-13-10-13--------------------------------------|
|-----------------------------------------------14---(14)b15====(14)--(14)--(14)\----|
|------------------------------------------------------------------------------------|
|------------------------------------------------------------------------------------|
|------------------------------------------------------------------------------------|
|------------------------------------------------------------------------------------|


    W
|-----------------------------------|
|-----------------------------------|
|-----------------------------------|
|---7-------------------------------|
|---7-------------------------------|
|---5-------------------------------|
|
|                               ~~~
|   E  E  E   E      e   E      Q
|-----------------------------------|
|-----------------------------------|
|------0-[7]-[7]b10-[7]-[7]b10-[7]--|
|-----------------------------------|
|-----------------------------------|
|-h15\------------------------------|


   W
|-------------------------------------------|
|-------------------------------------------|
|--5----------------------------------------|
|--5----------------------------------------|
|--3----------------------------------------|
|--3----------------------------------------|
|
|           ~~~
|  S  S  S  S   +Q     S S S S E     S  +S
|-------------------------------------------|
|-------------------------------------------|
|----[7]---[5]-([5])------------------------|
|-/7-----x---------------5-7-5-------5--(5)-|
|---------------------/7-------5b7==(5)-(5)-|
|-------------------------------------------|


   W                            Q.     Q.              Q
|--1--------------------------|-----------------------------------|
|--1--------------------------|-----------------------------------|
|--x--------------------------|-----------------------------------|
|--3--------------------------|-2------7---------------5----------|
|--3--------------------------|-2------5---------------3----------|
|--1--------------------------|-0------5---------------3----------|
|
|                         ~~    TP TP      TP TP TP TP TP TP
|                   |-3-|
| +E  S S +E    S S E E E E.S   E  Q.      S  S  S  S  S  S  S  S
|-----------------------------|-----------------------------------|
|-----------------------------|-----------------------------------|
|-----------------------------|-----------------------------------|
|-----------------------------|-----------------------------12s14-|
|-(5)r3h5-(5)b8r3-----3-------|-----------10h12-12-10-12-10-------|
|-----------------5-3---3-5p0-|-0S12------------------------------|


                                                       ~~~~
   S  T T  S T T  S  T T S  S  T T  S T T  S  T T  S   E
|---------------------------------------------------------|
|---------------------------------------------------------|
|---------------------------------------------------------|
|---------------------------------------------------------|
|----------------------------------------------------[10]-|
|-12p10p0-10-9p0-12p10p0-0-12p10p0-10-9p0-12p10p0-10------|
|
|  ~~~
|  W
|---------------------------------------------------------|
|---------------------------------------------------------|
|---------------------------------------------------------|
|-14------------------------------------------------------|
|---------------------------------------------------------|
|---------------------------------------------------------|


                                                       ~~~~
   S  T T  S T T  S  T T S  S  T T  S T T  S  T T  S   E
|---------------------------------------------------------|
|---------------------------------------------------------|
|---------------------------------------------------------|
|---------------------------------------------------------|
|----------------------------------------------------[12]-|
|-12p10p0-10-9p0-12p10p0-0-12p10p0-10-9p0-12p10p0-10------|
|
|  W
|---------------------------------------------------------|
|---------------------------------------------------------|
|---------------------------------------------------------|
|---------------------------------------------------------|
|---------------------------------------------------------|
|---------------------------------------------------------|


   Pre-Chorus
    S S S S S S S S S S S S S S S S   S S S S S S S S S S S S S S S S
||----------------------------------|---------------------------------|
||o---------------------------------|---------------------------------|
||----------------------------------|---------------------------------|
||----------------------------------|---------------------------------|
||o-7h8-0-7h8-0-7h8-0-7h8-0-7h8p7-0-|-5h7-0-5h7-0-5h7-0-5h7-0-5h7p5-0-|
||----------------------------------|---------------------------------|


                                    1.,2.,3.
                                                            ~~
  S S S S S S S S S S S S S S S S   S S S S S S S S S S S S E.S  4x
|---------------------------------|------------------------------||
|---------------------------------|-----------------------------o||
|---------------------------------|------------------------------||
|---------------------------------|------------------------------||
|-3h5-0-3h5-0-3h5-0-3h5-0-3h5p3-0-|-8p7p0-7p5p0-5p3p0-3p2p0-----o||
|---------------------------------|-------------------------1p0--||


  4.
          PM------|           PM----|
  |----6----| |----6----| |----6----| |----6----|
  S S S S S S S S S S S S S S S S S S S S S S S S
|-------------------------------------------------|
|-------------------------------------------------|
|-------------------------------------------------|
|-------------------------------------------------|
|-8p7p5-7-5-3-5-3-1-1h3-0h1p0---------------------|
|-----------------------------3-1-3-1-1h3-1p0h1p0-|


   Chorus
                    ~
    S S S S S S S S E S S S S S S   E S S S S S S S S S S +E  E
||--------------------------------|------------------------------|
||o-------------------------------|------------------------------|
||--------------------------------|------------------------------|
||--------------------------------|------------------------------|
||o---------7h8p7p5-7-------------|-------7h8p7p5-7p5------------|
||--0-0-0-0-----------0-0-0-0-0-0-|-0-0-0-------------7-4-(4)-7--|


                  ~
  S S S S S S S S E S S S S S S   E S S S S S S S S S S +E  E
|-------------------------------|-----------------------------|
|-------------------------------|-----------------------------|
|-------------------------------|-----------------------------|
|-------------------------------|-----------------------------|
|---------7h8p7p5-7-------------|-------7h8p7p5-7p5---------3-|
|-0-0-0-0-----------0-0-0-0-0-0-|-0-0-0-------------7-0-(0)-1-|


                  ~
  S S S S S S S S E S S S S S S   E S S S S S S S S S S +E  E
|-------------------------------|-----------------------------|
|-------------------------------|-----------------------------|
|-------------------------------|-----------------------------|
|-------------------------------|-----------------------------|
|---------7h8p7p5-7-------------|-------7h8p7p5-7p5-----------|
|-0-0-0-0-----------0-0-0-0-0-0-|-0-0-0-------------7-4-(4)-7-|


                  ~
  S S S S S S S S E S S S S S S   E S S S S S S S S S S +E  E
|-------------------------------|------------------------------||
|-------------------------------|-----------------------------o||
|-------------------------------|------------------------------||
|-------------------------------|---------------7p6------------||
|---------7h8p7p5-7-------------|-------7h8p7p5-----7---------o||
|-0-0-0-0-----------0-0-0-0-0-0-|-0-0-0---------------5-(5)-4--||


Duration Legend
---------------
W - whole; H - half; Q - quarter; E - 8th; S - 16th; T - 32nd; X - 64th; a - acciaccatura
+ - note tied to previous; . - note dotted; .. - note double dotted
Uncapitalized letters represent notes that are staccato (1/2 duration)
Irregular groupings are notated above the duration line
Duration letters will always appear directly above the note/fret number it represents the
duration for.  Duration letters with no fret number below them represent rests.  Multi-
bar rests are notated in the form Wxn, where n is the number of bars to rest for.  Low
melody durations appear below the staff

Tablature Legend
----------------
 h   - hammer-on
 p   - pull-off
 b   - bend
 pb  - pre-bend
 r   - bend release (if no number after the r, then release immediately)
 /\  - slide into or out of (from/to "nowhere")
 s   - legato slide
 S   - shift slide
  - natural harmonic
[n]  - artificial harmonic
n(n) - tapped harmonic
 ~   - vibrato
 tr  - trill
 T   - tap
 TP  - trem. picking
 PM  - palm muting
\n/  - tremolo bar dip; n = amount to dip
 \n  - tremolo bar down
 n/  - tremolo bar up
/n\  - tremolo bar inverted dip
 =   - hold bend; also acts as connecting device for hammers/pulls
 <>  - volume swell (louder/softer)
 x   - on rhythm slash represents muted slash
 o   - on rhythm slash represents single note slash

Misc Legend
-----------
 |  - bar
||  - double bar
||o - repeat start
o|| - repeat end
*|  - double bar (ending)
 :  - bar (freetime)
 $  - Segno
 &  - Coda
Tempo markers -  = BPM(8/16=s8/s16), where s8 = swing 8ths, s16 = swing 16ths


***************************************************************************************
***************************************************************************************





Comments


Popular Kamelot tabs & chords
March Of Mephisto Bass Tabs
The Fourth Legacy Bass Tabs
Hunters Season Intro Tabs
Lost And Damned Tabs
Rule The World Intro Tabs
Season's End Tabs
Siege (Intro Ver 2) Tabs
The Inquisitor Tabs
When The Lights Are Down 1 Tabs
A Sailormans Hymn Ukulele


Song lyrics



↑ Back to top | Tablatures and chords are parodies/interpretations of the original songs. You may use it for private study, scholarship, research or language learning purposes only
© 2014 AZChords.com Contact us | Privacy policy | DMCA | Add/correct tabs | Request tabs | Top 50 tabs