>
 >
The Fourth Legacy

The Fourth Legacy Bass Tabs

Kamelot - The Fourth Legacy chords, tabs, tablatures, lyrics

Guitar lessons | Add/correct | Request | Top 50 tabs Artists:  A B C D E F G H I J K L M N O P Q R S T U V W X Y Z 0-9

The Fourth Legacy Bass Tabs – Kamelot

CD, Sheet music, Poster

Do you like The Fourth Legacy? Share with your friends now
Bass TabsTabsTabs v2
KAmelot - The fourth legacy
Album - The fourth legacy (1999)
Bassist - Glenn Barry
Standard tuning ( E A D G )

Speedy song, nice melody, please rate!!

G||------|----------------------------------|----------------------------------|
D||------|----------------------------------|----------------------------------|
A||------|----------------------------------|----------------------------------|
E||------|--1-1-1-1-1-1-1-1-1-1-1-1-1-1-1-1-|--1-1-1-1-1-1-1-1-1-1-1-1-1-1-1-1-|


                                                                      
----------------------------------|----------------------------------|
----------------------------------|----------------------------------|
----------------------------------|--3-3-3-3-3-3-3-3-3-3-3-3-3-3-3-3-|
--1-1-1-1-1-1-1-1-1-1-1-1-1-1-1-1-|----------------------------------|


                                                                      
----------------------------------|----------------------------------|
----------------------------------|----------------------------------|
----------------------------------|----------------------------------|
--1-1-1-1-1-1-1-1-1-1-1-1-1-1-1-1-|--1-1-1-1-1-1-1-1-1-1-1-1-1-1-1-1-|


                                                                      
----------------------------------|----------------------------------|
----------------------------------|----------------------------------|
----------------------------------|--3-3-3-3-3-3-3-3-3-3-3-3-3-3-3-3-|
--1-1-1-1-1-1-1-1-1-1-1-1-1-1-1-1-|----------------------------------|


                                                                      
----------------------------------|----------------------------------|
----------------------------------|----------------------------------|
----------------------------------|----------------------------------|
--1-1-1-1-1-1-1-1-1-1-1-1-1-1-1-1-|--1-1-1-1-1-1-1-1-1-1-1-1-1-1-1-1-|


                                                                      
----------------------------------|----------------------------------|
----------------------------------|----------------------------------|
----------------------------------|--3-3-3-3-3-3-3-3-3-3-3-3-3-3-3-3-|
--1-1-1-1-1-1-1-1-1-1-1-1-1-1-1-1-|----------------------------------|


                                                                      
----------------------------------|----------------------------------|
----------------------------------|----------------------------------|
----------------------------------|--3-3-3-3-3-3-3-3-3-3-3-3-3-3-3-3-|
--1-1-1-1-1-1-1-1-1-1-1-1-1-1-1-1-|----------------------------------|


                                                              
----------------------------------|--------------------------|
----------------------------------|--------------------------|
--4-4-4-4-4-4-4-4-4-4-4-4-4-4-4-4-|--------------------------|
----------------------------------|--4--6--3--4--1--3--0--1--|


                                                      
--------------------------|--------------------------|
--------------------------|--------------------------|
--------------------------|--------------------------|
--1--1--1--1--1--1--1--1--|--1--1--1--1--1--1--0--0--|


                                                      
--------------------------|--------------------------|
--------------------------|--------------------------|
--------------------------|--------------------4--4--|
--4--4--4--4--4--4--4--4--|--4--4--4--4--4--4--------|


                                                      
--------------------------|--------------------------|
--------------------------|--------------------------|
--5--5--5--5--4--4--4--4--|--1--1--1--1--------------|
--------------------------|--------------4--4--4--4--|


                                                      
--------------------------|--------------------------|
--------------------------|--------1--3--1-----------|
-----3-----3-----3-----3--|--3--4-----------4--3--1--|
--0--1--0--1--0--1--0--1--|--------------------------|


                                                      
--------------------------|--------------------------|
--------------------------|--------------------------|
--------------------------|--------------------------|
--1--1--1--1--1--1--1--1--|--1--1--1--1--1--1--0--0--|


                                                      
--------------------------|--------------------------|
--------------------------|--------------------------|
--------------------------|--------------------4--4--|
--4--4--4--4--4--4--4--4--|--4--4--4--4--4--4--------|


                                                      
--------------------------|--------------------------|
--------------------------|--------------------------|
--5--5--5--5--4--4--4--4--|--1--1--1--1--------------|
--------------------------|--------------4--4--4--4--|


                                                      
--------------------------|--------------------------|
--------------------------|--------1--3--1-----------|
-----3-----3-----3-----3--|--3--4-----------4--3--1--|
--0--1--0--1--0--1--0--1--|--------------------------|


                                                                      
----------------------------------|----------------------------------|
----------------------------------|----------------------------------|
--4-4-4-4-4-4-4-4-4-4-4-4-4-4-4-4-|--4-4-4-4-4-4-4-4-4-4-4-4-4-4-4-4-|
----------------------------------|----------------------------------|


                                                                      
----------------------------------|----------------------------------|
----------------------------------|----------------------------------|
----------------------------------|----------------------------------|
--1-1-1-1-1-1-1-1-1-1-1-1-1-1-1-1-|--1-1-1-1-1-1-1-1-1-1-1-1-1-1-1-1-|


                                                              
----------------------------------|--------------------6--6--|
----------------------------------|--3--3--4--4--6--6--------|
--4-4-4-4-4-4-4-4-4-4-4-4-4-4-4-4-|--------------------4--4--|
----------------------------------|--1--1--2--2--4--4--------|


                                                       
----------------------------------|--5----------------|
----------------------------------|-------------------|
--3-3-3-3-3-3-3-3-3-3-3-3-3-3-3-3-|--3----------------|
----------------------------------|-------------------|


                                                                      
----------------------------------|----------------------------------|
----------------------------------|----------------------------------|
----------------------------------|--3-3-3-3-3-3-3-3-3-3-3-3-3-3-3-3-|
--1-1-1-1-1-1-1-1-1-1-1-1-1-1-1-1-|----------------------------------|


                                                                      
----------------------------------|----------------------------------|
----------------------------------|----------------------------------|
--1-1-1-1-1-1-1-1-1-1-1-1-1-1-1-1-|----------------------------------|
----------------------------------|--1-1-1-1-1-1-1-1-1-1-1-1-1-1-1-1-|


                                                                      
----------------------------------|----------------------------------|
----------------------------------|----------------------------------|
----------------------------------|----------------------------------|
--2-2-2-2-2-2-2-2-2-2-2-2-2-2-2-2-|--1-1-1-1-1-1-1-1-1-1-1-1-1-1-1-1-|


                                                          
----------------------------------|----5----5----5----5--|
----------------------------------|----------------------|
--3-3-3-3-3-3-3-3-3-3-3-3-3-3-3-3-|----3----3----3----3--|
----------------------------------|----------------------|


                                                                      
----------------------------------|----------------------------------|
----------------------------------|----------------------------------|
----------------------------------|--3-3-3-3-3-3-3-3-3-3-3-3-3-3-3-3-|
--1-1-1-1-1-1-1-1-1-1-1-1-1-1-1-1-|----------------------------------|


                                                                      
----------------------------------|----------------------------------|
----------------------------------|----------------------------------|
--1-1-1-1-1-1-1-1-1-1-1-1-1-1-1-1-|----------------------------------|
----------------------------------|--1-1-1-1-1-1-1-1-1-1-1-1-1-1-1-1-|


                                                          
----------------------------------|--5----3--------------|
----------------------------------|------------6----4----|
----------------------------------|--3----1--------------|
--2-2-2-2-2-2-2-2-2-2-2-2-2-2-2-2-|------------4----2----|


                                                                      
----------------------------------|----------------------------------|
----------------------------------|----------------------------------|
----------------------------------|----------------------------------|
--1-1-1-1-1-1-1-1-1-1-1-1-1-1-1-1-|--1-1-1-1-1-1-1-1-1-1-1-1-1-1-1-1-|


                                                                      
----------------------------------|----------------------------------|
----------------------------------|----------------------------------|
----------------------------------|--3-3-3-3-3-3-3-3-3-3-3-3-3-3-3-3-|
--1-1-1-1-1-1-1-1-1-1-1-1-1-1-1-1-|----------------------------------|


                                                                      
----------------------------------|----------------------------------|
----------------------------------|----------------------------------|
----------------------------------|--3-3-3-3-3-3-3-3-3-3-3-3-3-3-3-3-|
--1-1-1-1-1-1-1-1-1-1-1-1-1-1-1-1-|----------------------------------|


                                                              
----------------------------------|--------------------------|
----------------------------------|--------------------------|
--4-4-4-4-4-4-4-4-4-4-4-4-4-4-4-4-|--------------------------|
----------------------------------|--4--6--3--4--1--3--0--1--|


                                                      
--------------------------|--------------------------|
--------------------------|--------------------------|
--------------------------|--------------------------|
--4--6--3--4--1--3--0--1--|--1--1--1--1--1--1--1--1--|


                                                      
--------------------------|--------------------------|
--------------------------|--------------------------|
--------------------------|--------------------------|
--1--1--1--1--1--1--0--0--|--4--4--4--4--4--4--4--4--|


                                                      
--------------------------|--------------------------|
--------------------------|--------------------------|
--------------------4--4--|--5--5--5--5--4--4--4--4--|
--4--4--4--4--4--4--------|--------------------------|


                                                      
--------------------------|--------------------------|
--------------------------|--------------------------|
--1--1--1--1--------------|-----3-----3-----3-----3--|
--------------4--4--4--4--|--0--1--0--1--0--1--0--1--|


                                                              
--------------------------|----------------------------------|
--------1--3--1-----------|----------------------------------|
--3--4-----------4--3--1--|--4-4-4-4-4-4-4-4-4-4-4-4-4-4-4-4-|
--------------------------|----------------------------------|


                                                                      
----------------------------------|----------------------------------|
----------------------------------|----------------------------------|
--4-4-4-4-4-4-4-4-4-4-4-4-4-4-4-4-|----------------------------------|
----------------------------------|--1-1-1-1-1-1-1-1-1-1-1-1-1-1-1-1-|


                                                                      
----------------------------------|----------------------------------|
----------------------------------|----------------------------------|
----------------------------------|--4-4-4-4-4-4-4-4-4-4-4-4-4-4-4-4-|
--1-1-1-1-1-1-1-1-1-1-1-1-1-1-1-1-|----------------------------------|


                                                              
--------------------6--6--|----------------------------------|
--3--3--4--4--6--6--------|----------------------------------|
--------------------4--4--|--3-3-3-3-3-3-3-3-3-3-3-3-3-3-3-3-|
--1--1--2--2--4--4--------|----------------------------------|


                                                       
--5----------------|----------------------------------|
-------------------|----------------------------------|
--3----------------|----------------------------------|
-------------------|--1-1-1-1-1-1-1-1-1-1-1-1-1-1-1-1-|


                                                                      
----------------------------------|----------------------------------|
----------------------------------|----------------------------------|
--3-3-3-3-3-3-3-3-3-3-3-3-3-3-3-3-|--1-1-1-1-1-1-1-1-1-1-1-1-1-1-1-1-|
----------------------------------|----------------------------------|


                                                                      
----------------------------------|----------------------------------|
----------------------------------|----------------------------------|
----------------------------------|----------------------------------|
--1-1-1-1-1-1-1-1-1-1-1-1-1-1-1-1-|--2-2-2-2-2-2-2-2-2-2-2-2-2-2-2-2-|


                                                                      
----------------------------------|----------------------------------|
----------------------------------|----------------------------------|
----------------------------------|--3-3-3-3-3-3-3-3-3-3-3-3-3-3-3-3-|
--1-1-1-1-1-1-1-1-1-1-1-1-1-1-1-1-|----------------------------------|


                                                          
----5----5----5----5--|----------------------------------|
----------------------|----------------------------------|
----3----3----3----3--|----------------------------------|
----------------------|--1-1-1-1-1-1-1-1-1-1-1-1-1-1-1-1-|


                                                                      
----------------------------------|----------------------------------|
----------------------------------|----------------------------------|
--3-3-3-3-3-3-3-3-3-3-3-3-3-3-3-3-|--1-1-1-1-1-1-1-1-1-1-1-1-1-1-1-1-|
----------------------------------|----------------------------------|


                                                                      
----------------------------------|----------------------------------|
----------------------------------|----------------------------------|
----------------------------------|----------------------------------|
--1-1-1-1-1-1-1-1-1-1-1-1-1-1-1-1-|--2-2-2-2-2-2-2-2-2-2-2-2-2-2-2-2-|


                                                                              
--5----3--------------|-------------------|------|------|------|------|------|
------------4----6----|--3----------------|------|------|------|------|------|
--3----1--------------|-------------------|------|------|------|------|------|
------------2----4----|--1----------------|------|------|------|------|------|


                                                                             
------|------|------|------|------|------|------|------|------|------|------|
------|------|------|------|------|------|------|------|------|------|------|
------|------|------|------|------|------|------|------|------|------|------|
------|------|------|------|------|------|------|------|------|------|------|


                                                                
------|------|------|------|------|---------------------|------|
------|------|------|------|------|--3------3------3----|------|
------|------|------|------|------|---------------------|------|
------|------|------|------|------|--1------1------1----|------|


                                                                                
---------------------|------|---------------------|------|---------------------|
--3------3------3----|------|--3------3------3----|------|--3------3------3----|
---------------------|------|---------------------|------|---------------------|
--1------1------1----|------|--1------1------1----|------|--1------1------1----|


                                                                             
------|----------------------------------|----------------------------------|
------|----------------------------------|----------------------------------|
------|----------------------------------|----------------------------------|
------|--0-0-0-0-0-0-0-0-0-0-0-0-0-0-0-0-|--0-0-0-0-0-0-0-0-0-0-0-0-0-0-0-0-|


                                                                      
----------------------------------|----------------------------------|
----------------------------------|----------------------------------|
----------------------------------|----------------------------------|
--2-2-2-2-2-2-2-2-2-2-2-2-2-2-2-2-|--2-2-2-2-2-2-2-2-2-2-2-2-2-2-2-2-|


                                                                      
----------------------------------|----------------------------------|
----------------------------------|----------------------------------|
--3-3-3-3-3-3-3-3-3-3-3-3-3-3-3-3-|--3-3-3-3-3-3-3-3-3-3-3-3-3-3-3-3-|
----------------------------------|----------------------------------|


                                                                     
----------------------------------|--------------------------|------|
----------------------------------|--------------------------|------|
----------------------------------|--3-----------------------|------|
--0-0-0-0-0-0-0-0-0-0-0-0-0-0-0-0-|-----5--6--3--5--1--3--0--|------|


                                                                     
---------------------|-------------------|--------------------------|
---------------------|-------------------|--------------------------|
---------------------|-------------------|--------------------------|
--7------5------3----|----1--------------|--1--1--1--1--1--1--1--1--|


                                                      
--------------------------|--------------------------|
--------------------------|--------------------------|
--------------------------|--------------------------|
--1--1--1--1--1--1--0--0--|--4--4--4--4--4--4--4--4--|


                                                      
--------------------------|--------------------------|
--------------------------|--------------------------|
--------------------4--4--|--5--5--5--5--4--4--4--4--|
--4--4--4--4--4--4--------|--------------------------|


                                                      
--------------------------|--------------------------|
--------------------------|--------------------------|
--1--1--1--1--------------|-----3-----3-----3-----3--|
--------------4--4--4--4--|--0--1--0--1--0--1--0--1--|


                                                      
--------------------------|--------------------------|
--------1--3--1-----------|--------------------------|
--3--4-----------4--3--1--|--------------------------|
--------------------------|--1--1--1--1--1--1--1--1--|


                                                      
--------------------------|--------------------------|
--------------------------|--------------------------|
--------------------------|--------------------------|
--1--1--1--1--1--1--0--0--|--4--4--4--4--4--4--4--4--|


                                                      
--------------------------|--------------------------|
--------------------------|--------------------------|
--------------------4--4--|--5--5--5--5--4--4--4--4--|
--4--4--4--4--4--4--------|--------------------------|


                                                      
--------------------------|--------------------------|
--------------------------|--------------------------|
--1--1--1--1--------------|-----3-----3-----3-----3--|
--------------4--4--4--4--|--0--1--0--1--0--1--0--1--|


                                                              
--------------------------|----------------------------------|
--------1--3--1-----------|----------------------------------|
--3--4-----------4--3--1--|--4-4-4-4-4-4-4-4-4-4-4-4-4-4-4-4-|
--------------------------|----------------------------------|


                                                                      
----------------------------------|----------------------------------|
----------------------------------|----------------------------------|
--4-4-4-4-4-4-4-4-4-4-4-4-4-4-4-4-|----------------------------------|
----------------------------------|--1-1-1-1-1-1-1-1-1-1-1-1-1-1-1-1-|


                                                                      
----------------------------------|----------------------------------|
----------------------------------|----------------------------------|
----------------------------------|--4-4-4-4-4-4-4-4-4-4-4-4-4-4-4-4-|
--1-1-1-1-1-1-1-1-1-1-1-1-1-1-1-1-|----------------------------------|


                                                              
--------------------6--6--|----------------------------------|
--3--3--4--4--6--6--------|----------------------------------|
--------------------4--4--|--3-3-3-3-3-3-3-3-3-3-3-3-3-3-3-3-|
--1--1--2--2--4--4--------|----------------------------------|


                                                       
--5----------------|----------------------------------|
-------------------|----------------------------------|
--3----------------|----------------------------------|
-------------------|--1-1-1-1-1-1-1-1-1-1-1-1-1-1-1-1-|


                                                                      
----------------------------------|----------------------------------|
----------------------------------|----------------------------------|
--3-3-3-3-3-3-3-3-3-3-3-3-3-3-3-3-|--1-1-1-1-1-1-1-1-1-1-1-1-1-1-1-1-|
----------------------------------|----------------------------------|


                                                                      
----------------------------------|----------------------------------|
----------------------------------|----------------------------------|
----------------------------------|----------------------------------|
--1-1-1-1-1-1-1-1-1-1-1-1-1-1-1-1-|--2-2-2-2-2-2-2-2-2-2-2-2-2-2-2-2-|


                                                                      
----------------------------------|----------------------------------|
----------------------------------|----------------------------------|
----------------------------------|--3-3-3-3-3-3-3-3-3-3-3-3-3-3-3-3-|
--1-1-1-1-1-1-1-1-1-1-1-1-1-1-1-1-|----------------------------------|


                                                          
----5----5----5----5--|----------------------------------|
----------------------|----------------------------------|
----3----3----3----3--|----------------------------------|
----------------------|--1-1-1-1-1-1-1-1-1-1-1-1-1-1-1-1-|


                                                                      
----------------------------------|----------------------------------|
----------------------------------|----------------------------------|
--3-3-3-3-3-3-3-3-3-3-3-3-3-3-3-3-|--1-1-1-1-1-1-1-1-1-1-1-1-1-1-1-1-|
----------------------------------|----------------------------------|


                                                                      
----------------------------------|----------------------------------|
----------------------------------|----------------------------------|
----------------------------------|----------------------------------|
--1-1-1-1-1-1-1-1-1-1-1-1-1-1-1-1-|--2-2-2-2-2-2-2-2-2-2-2-2-2-2-2-2-|


                                                          
--5----3--------------|----------------------------------|
------------6----4----|----------------------------------|
--3----1--------------|----------------------------------|
------------4----2----|--1-1-1-1-1-1-1-1-1-1-1-1-1-1-1-1-|


                                                                      
----------------------------------|----------------------------------|
----------------------------------|----------------------------------|
--3-3-3-3-3-3-3-3-3-3-3-3-3-3-3-3-|--1-1-1-1-1-1-1-1-1-1-1-1-1-1-1-1-|
----------------------------------|----------------------------------|


                                                                      
----------------------------------|----------------------------------|
----------------------------------|----------------------------------|
----------------------------------|----------------------------------|
--1-1-1-1-1-1-1-1-1-1-1-1-1-1-1-1-|--2-2-2-2-2-2-2-2-2-2-2-2-2-2-2-2-|


                                                                      
----------------------------------|----------------------------------|
----------------------------------|----------------------------------|
----------------------------------|--3-3-3-3-3-3-3-3-3-3-3-3-3-3-3-3-|
--1-1-1-1-1-1-1-1-1-1-1-1-1-1-1-1-|----------------------------------|


                                                          
----5----5----5----5--|----------------------------------|
----------------------|----------------------------------|
----3----3----3----3--|----------------------------------|
----------------------|--1-1-1-1-1-1-1-1-1-1-1-1-1-1-1-1-|


                                                                      
----------------------------------|----------------------------------|
----------------------------------|----------------------------------|
--3-3-3-3-3-3-3-3-3-3-3-3-3-3-3-3-|--1-1-1-1-1-1-1-1-1-1-1-1-1-1-1-1-|
----------------------------------|----------------------------------|


                                                                      
----------------------------------|----------------------------------|
----------------------------------|----------------------------------|
----------------------------------|----------------------------------|
--1-1-1-1-1-1-1-1-1-1-1-1-1-1-1-1-|--2-2-2-2-2-2-2-2-2-2-2-2-2-2-2-2-|


                                                          
--5----3--------------|----------------------------------|
------------6----4----|----------------------------------|
--3----1--------------|----------------------------------|
------------4----2----|--1-1-1-1-1-1-1-1-1-1-1-1-1-1-1-1-|


                                                                      
----------------------------------|----------------------------------|
----------------------------------|----------------------------------|
----------------------------------|----------------------------------|
--1-1-1-1-1-1-1-1-1-1-1-1-1-1-1-1-|--1-1-1-1-1-1-1-1-1-1-1-1-1-1-1-1-|


                                                                      
----------------------------------|----------------------------------|
----------------------------------|----------------------------------|
--3-3-3-3-3-3-3-3-3-3-3-3-3-3-3-3-|----------------------------------|
----------------------------------|--1-1-1-1-1-1-1-1-1-1-1-1-1-1-1-1-|


                                                                      
----------------------------------|----------------------------------|
----------------------------------|----------------------------------|
--3-3-3-3-3-3-3-3-3-3-3-3-3-3-3-3-|--4-4-4-4-4-4-4-4-4-4-4-4-4-4-4-4-|
----------------------------------|----------------------------------|


                                                                            
--------------------------|----|--5----3---------------|------------------||
--------------------------|----|------------6----4--3--|------------------||
--------------------------|----|--3----1---------------|------------------||
--4--6--3--4--1--3--0--1--|----|------------4----2--1--|------------------||





Comments


Popular Kamelot tabs & chords
Black Halo Bass Tabs
On The Coldest Winter Night 2 Bass Tabs
A Feast For The Vain Tabs
Karma Tabs
Lost And Damned Tabs
Rule The World Tabs
Siege (Intro Ver 2) Tabs
Siege (Intro) Tabs
Anthem Ukulele
Temples Of Gold Ukulele


Song lyrics



↑ Back to top | Tablatures and chords are parodies/interpretations of the original songs. You may use it for private study, scholarship, research or language learning purposes only
© 2014 AZChords.com Contact us | Privacy policy | DMCA | Add/correct tabs | Request tabs | Top 50 tabs