>
 >
Soul Society

Soul Society Guitar Tabs

Kamelot - Soul Society chords, tabs, tablatures, lyrics

Guitar lessons | Add/correct | Request | Top 50 tabs Artists:  A B C D E F G H I J K L M N O P Q R S T U V W X Y Z 0-9

Soul Society Guitar Tabs – Kamelot

CD, Sheet music, Poster

Do you like Soul Society? Share with your friends now
Tabs
Soul Society 
Kamelot
Track number 4 from Black Halo (2005)
Tunning:  Guitar 1 = Rhytm gutiar : 1/2 step down (EbAbDbGbBbeb)
          
This one is a very fun song to play, the live vertion rocks, for it fust play the E5 in the lower frets
wast able to figure out the solo, sorry.... enjoy anyway i think all the chords are right


Intro
      Gtr1 (Distorted)
eb||--0------------------------------------||
Bb||--8------------------------------------||
Gb||--9-----5------------------------------||
Db||--9-----5------------------------------||
Ab||--7-----3------------------------------||
Eb||--0------------------------------------||
   |
   |  Gtr2 (Clean) (for alum vertion, not sure)
eb||--0------------------------------------||
Bb||-----3--1--0---------------------------||
Gb||--------------0------------------------||
Db||-----------------2--0------------------||
Ab||-----------------------3--2h3p2--------||
Eb||---------------------------------3--0--||

Verse 1 
Em               C
If my soul could revive
                  Em
              C
What does it matter to me
Em                 C
If it all fades to black
                  Em
If I'm born once again
             C
Then no one really is free


Verse 2

      Em                       C                    Em               C
eb||------------------------|--------------------|----------------|------------------------------||
Bb||--8----------8----------|--------------------|--8----------8--|------------------------------||
Gb||--9----------9----------|--5---------5-------|--9----------9--|--5---------5-----------------||
Db||--9--9-9-9---9--10-(9)--|--5--5-5-5--5--5-5--|--9--9-9-9---9--|--5--5-5-5--5--5-5------------||
Ab||--7--7-7-7---7--7--(7)--|--3--3-3-3--3--2-3--|--7--7-7-7---7--|--3--3-3-3--3--2-3-3-3-3-*3*--||
Eb||--0----------0----------|--------------------|--0----------0--|------------------------------||
    How....could I  be con.....demned For...I've   done If my in.....tentions were good...(good)

      Em                       C                    Em               C
eb||------------------------|--------------------|----------------|--------------------------------||
Bb||--8----------8----------|--------------------|--8----------8--|--------------------------------||
Gb||--9----------9----------|--5---------5-------|--9----------9--|--5-----------------------------||
Db||--9--9-9-9---9--10-(9)--|--5--5-5-5--5--5-5--|--9--9-9-9---9--|--5--5-5-5--5-2-----------------||
Ab||--7--7-7-7---7--7--(7)--|--3--3-3-3--3--2-3--|--7--7-7-7---7--|--3--3-3-3------5-3-2h3p2-------||
Eb||--0----------0----------|--------------------|--0----------0--|--------------------------5-3---||
    I guess I'll ...never ....know Some things..... sun Can.... understood

Chorus
     
     C5       D5            B5     E5           C5    D5       E5     G5
eb||-----------------------------------|-----|----------------------------------------||
Bb||-----------------------------------|-----|----------------------------------------||
Gb||--5---5---7----7-----7--4----------|-----|--5------7--------------4---------------||
Db||--5---5../7----7-----7--4-------2--|-5-2-|--5------7--------9-----5---------------||
Ab||--3---3../5----5-----5--2-2h3p2-2--|-----|--3------5--------7-----5---------------||
Eb||------------------------2-------0--|-----|------------------------3---------------||
      How can we believe in hea.....ven         Human reason counters all  Ideas of a

      B5          E5    C5      D5      E5     B5          C5      D5           G5
eb||------------------|----------------------------|-----|-------------------------||
Bb||------------------|----------------------------|-----|-------------------------||
Gb||--4---------------|--5-------7-----------------|-----|--5-------7-----------4--||
Db||--4------------2--|--5-------7-------9-----(4)-|-----|--5-------7-----------5--||
Ab||--2----0-------2--|--3-------5------/7-----\2--|--0--|--3-------5-----------5--||
Eb||---------------0--|----------------------------|-----|----------------------3--||
      soul society   My life is just a fragment             Of the universe and all
     
                  B5                       C5          D5
eb||------------------------------------|-----------------------------||
Bb||------------------------------------|-----------------------------||
Gb||---------------4--------------------|-----------------------------||
Db||---------------4--------------------|-----5--7--9-----7-9--12/14--||
Ab||---------------2----------------/5--|--3-----------5--------------||
Eb||------------------------------------|-----------------------------||
     There must be more than I can see
 

Verse 3: just the same as the fist verse

In the dark we're the same
In the concept of time
We're like a grain of sand
And we strive for the flame
As if death was our aim
Cause we cannot understand

Chorus
     
     C5       D5            B5     E5           C5    D5       E5     G5
eb||-----------------------------------|-----|----------------------------------------||
Bb||-----------------------------------|-----|----------------------------------------||
Gb||--5---5---7----7-----7--4----------|-----|--5------7--------------4---------------||
Db||--5---5../7----7-----7--4-------2--|-5-2-|--5------7--------9-----5---------------||
Ab||--3---3../5----5-----5--2-2h3p2-2--|-----|--3------5--------7-----5---------------||
Eb||------------------------2-------0--|-----|------------------------3---------------||
      How can we believe in hea.....ven         All... one and 0ne..all  A flawless 

      B5          E5    C5      D5      E5     B5          C5      D5           G5
eb||------------------|----------------------------|-----|-------------------------||
Bb||------------------|----------------------------|-----|-------------------------||
Gb||--4---------------|--5-------7-----------------|-----|--5-------7-----------4--||
Db||--4------------2--|--5-------7-------9-----(4)-|-----|--5-------7-----------5--||
Ab||--2----0-------2--|--3-------5------/7-----\2--|--0--|--3-------5-----------5--||
Eb||---------------0--|----------------------------|-----|----------------------3--||
      soul society   My life is just a fragment             Of the universe and all
     
                  B5                       C5          D5
eb||------------------------------------|-----------------------------||
Bb||------------------------------------|-----------------------------||
Gb||---------------4--------------------|-----------------------------||
Db||---------------4--------------------|-----5--7--9-----7-9--12/14--||
Ab||---------------2----------------/5--|--3-----------5--------------||
Eb||------------------------------------|-----------------------------||
     There must be more than we can see

Piano And Orchestra Bridge (NO GUITAR, NO VOCALS)

GUITAR SOLO: sorry wast able to figuer it out
eb||-------------------------------------------||
Bb||-------------------------------------------||
Gb||-------------------------------------------||
Db||-------------------------------------------||
Ab||-------------------------------------------||
Eb||-------------------------------------------||

Verse 4: no guitar
How could I be condemned 
For the things that I've done
If my intentions were good
I guess I'll never know
Some things under the sun
Can never be understood

Final chorus

     
     C5       D5            B5     E5           C5    D5       E5     G5
eb||-----------------------------------|-----|----------------------------------------||
Bb||-----------------------------------|-----|----------------------------------------||
Gb||--5---5---7----7-----7--4----------|-----|--5------7--------------4---------------||
Db||--5---5../7----7-----7--4-------2--|-5-2-|--5------7--------9-----5---------------||
Ab||--3---3../5----5-----5--2-2h3p2-2--|-----|--3------5--------7-----5---------------||
Eb||------------------------2-------0--|-----|------------------------3---------------||
      How can we believe in hea.....ven         All... one and 0ne..all  Ideas of a 

      B5          E5    C5      D5      E5     B5          C5      D5           G5
eb||------------------|----------------------------|-----|-------------------------||
Bb||------------------|----------------------------|-----|-------------------------||
Gb||--4---------------|--5-------7-----------------|-----|--5-------7-----------4--||
Db||--4------------2--|--5-------7-------9-----(4)-|-----|--5-------7-----------5--||
Ab||--2----0-------2--|--3-------5------/7-----\2--|--0--|--3-------5-----------5--||
Eb||---------------0--|----------------------------|-----|----------------------3--||
      soul society   My life is just a fragment             Of the universe and all
     
                  B5                       C5          D5
eb||------------------------------------|-----------------------------|-----------------||
Bb||------------------------------------|-----------------------------|-----------------||
Gb||---------------4--------------------|-----------------------------|-----------------||
Db||---------------4--------------------|-----5--7--9-----7-9--12/14--|--9-9---------9--||
Ab||---------------2----------------/5--|--3-----------5--------------|--7-7---------7--||
Eb||------------------------------------|-----------------------------|-------0-0-0-----||
     There must be more than we can see





Comments


Popular Kamelot tabs & chords
Epilogue Chords
On The Coldest Winter Night Chords
A Feast For The Vain Intro Tabs
A Sailorman's Hymn 1 Tabs
Blcher Intro Tabs
Descent Of The Archangel Tabs
Rule The World Intro Tabs
The Zodiac Intro Tabs
A Sailormans Hymn Ukulele
Dont You Cry Ukulele


Song lyrics



↑ Back to top | Tablatures and chords are parodies/interpretations of the original songs. You may use it for private study, scholarship, research or language learning purposes only
© 2014 AZChords.com Contact us | Privacy policy | DMCA | Add/correct tabs | Request tabs | Top 50 tabs