>
 >
Season's End

Season's End Guitar Tabs

Kamelot - Season's End chords, tabs, tablatures, lyrics

Guitar lessons | Add/correct | Request | Top 50 tabs Artists:  A B C D E F G H I J K L M N O P Q R S T U V W X Y Z 0-9

Season's End Guitar Tabs – Kamelot

CD, Sheet music, Poster

Do you like Season's End? Share with your friends now
Tabs
Kamelot
Track number ? from Ghost Opera (2007) BONUS TRACK ONLY FOR JAPAN
Tunning: 1/2 step down (EbAbDbGbBbeb)

This is a very preatty little song theres isnt a lot of guitar on it so is quite easy to play
i figure this very quickly so there might be some mistakes, send me all of them


Intro (only keyboard and violin)

Verse 1: no guitar (only keyboard and violin)

Once in my life
A second of eternity
Seems long in my mind
What used to be
Keep changing over time
Don't go
Please don't say it's over 'til it is


Chorus: 

eb|----------------------------------------------|
Bb|----------------------------------------------|
Gb|-------------------------------5----5---------| x2
Db|--3------3-------7---7---------5----5------7--|
Ab|--3------3-------7---7---------3----3----5-7--|
Eb|--1------1--0----5---5----3----------------5--|
     Don't say goodbye Like we'd never meet again
     Leave me  a   lie       At  the  season's end        


Verse 2: wait for guitar entrance in the second have of it

Moments in time
Seems to be so long
In my old mind
My images of may

A5
eb|-------------------|
Bb|-------------------|
Gb|--2--2---2-3--2-2--| x4
Db|--2--2---2-2--2-2--|
Ab|--0--0---0-0--0-0--|
Eb|-------------------|
You gave me a sign
I took the chance
Of never looking back
I hope you understand


Chorus: 

eb|----------------------------------------------|
Bb|----------------------------------------------|
Gb|-------------------------------5----5---------| x4
Db|--3------3-------7---7---------5----5------5--|
Ab|--3------3-------7---7---------3----3----5-5--|
Eb|--1------1--0----5---5----3----------------3--|
     Don't say goodbye Like we'd never meet again
     Leave me  a   lie       At  the  season's end        
     Come lift the light Into heaven with a song
     Don't say goodbye 'Cause it's been so long


Middle: wait for guitar entrance


   A5
eb|-------------------|
Bb|-------------------|
Gb|--2--2---3-2--2-2--| x2
Db|--2--2---2-2--2-2--|
Ab|--0--0---0-0--0-0--|
Eb|-------------------|
It's been so long
It's been so long


Guitar solo: i didnt ry to figure it out, but here is the main scale of it

eb|--15-13-12-10----------------------|
Bb|--------------13-12-10-------------|
Gb|-----------------------14-12-10-9--| 
Db|-----------------------------------|
Ab|-----------------------------------|
Eb|-----------------------------------|

Bridge
A5
eb|-------------------|
Bb|-------------------|
Gb|--2--2---3-2--2-2--| x4
Db|--2--2---2-2--2-2--|
Ab|--0--0---0-0--0-0--|
Eb|-------------------|
You gave me a sign
I took the chance
Of never looking back
I hope you understand

Chorus: 

eb|----------------------------------------------|
Bb|----------------------------------------------|
Gb|-------------------------------5----5---------| x4
Db|--3------3-------7---7---------5----5------7--|
Ab|--3------3-------7---7---------3----3----5-7--|
Eb|--1------1--0----5---5----3----------------5--|
     Don't say goodbye Like we'd never meet again
     Leave me  a   lie       At  the  season's end        
     Come lift the light Into heaven with a song
     Don't say goodbye 'Cause it's been so long


Outro: no guitar


It's been so long
So long 





Comments


Popular Kamelot tabs & chords
Epilogue Chords
A Sailorman's Hymn Tabs
A Sailormans Hymn 2 Tabs
Black Halo Tabs
Forever 1 Tabs
Ghost Opera 1 Tabs
Karma Tabs
March Of Mephisto Tabs
Mourning Star Tabs
When The Lights Are Down 1 Tabs


Song lyrics



↑ Back to top | Tablatures and chords are parodies/interpretations of the original songs. You may use it for private study, scholarship, research or language learning purposes only
© 2014 AZChords.com Contact us | Privacy policy | DMCA | Add/correct tabs | Request tabs | Top 50 tabs