» » »

Kamelot, Mourning Star Tabs (ver.1)

Artists:  A B C D E F G H I J K L M N O P Q R S T U V W X Y Z # 

Mourning Star Tabs (ver.1)

Kamelot Tabs
Rating:
0/5 (0 votes)
Mourning Star lessons Tabs too difficult? Try these video lessons and learn fast
                Kamelot
Track number 8 from Ghost Opera (2007)
Tunning: 1/2 step down (EbAbDbGbBbeb)

Awsome song of the new album, is very easy to play, exept ofor the solo...
the chorus is ery weird.... but i figure out the chords of it, the solo is imposible
any way this song rocks hard and any body can play what is tabbed, enjoy

Intro

(Organ, drops, chants): no guitar until 00:43

Guitar enters
eb||---------------------------------|-----------------------||
Bb||---------------------------------|-----------------------||
Gb||------------------------0-1------|-----------------------||
Db||-----------2-------2--3-----3-2--|--2--------12----------||
Ab||------x\---2-----2---------------|--2-----12------3--3---||
Eb||--(12)x\---0-0-0-----------------|--0-0-0---------1--1---||

eb||----------------------------|-----------------------||
Bb||----------------------------|-----------------------||
Gb||----------------12-13-------|-----------------------||
Db||--2-------2--15------15-14--|--2--------12----------||
Ab||--2-----2-------------------|--2-----12------3--5---||
Eb||--0-0-0---------------------|--0-0-0---------1--3---||

eb||--------------------------|-----------------------||
Bb||--------------------------|-----------------------||
Gb||-----------------0-1------|-----------------------||
Db||----2-------2--3-----3-2--|--2--------12----------||
Ab||----2-----2---------------|--2-----12------3--3---||
Eb||----0-0-0-----------------|--0-0-0---------1--1---||

eb||----------------------------|-----------------------||
Bb||----------------------------|-----------------------||
Gb||----------------12-13-------|-----------------------||
Db||--2-------2--15------15-14--|--2--------12----------||
Ab||--2-----2-------------------|--2-----12------3--5---||
Eb||--0-0-0---------------------|--0-0-0---------1--3---||


Verse 1
eb||-------------------------------|---------|-------------------------------|--------||
Bb||-------------------------------|---------|-------------------------------|--------||
Gb||-------------------------------|-SILENT--|-------------------------------|--------||
Db||--2--------2---------2---------|-COMPASS-|--2--------2---------2---------|--3--3--||
Ab||--2--------2---------2---------|---------|--2--------2---------2---------|--3--3--||
Eb||--0--0-0-0-0--0-0-0--0--0-0-0--|---------|--0--0-0-0-0--0-0-0--0--0-0-0--|--1--1--||

eb||-------------------------------|---------|-------------------------------|--------||
Bb||-------------------------------|---------|-------------------------------|--------||
Gb||-------------------------------|-SILENT--|-------------------------------|--------||
Db||--2--------2---------2---------|-COMPASS-|--2--------2---------2---------|--3--5--||
Ab||--2--------2---------2---------|---------|--2--------2---------2---------|--3--5--||
Eb||--0--0-0-0-0--0-0-0--0--0-0-0--|---------|--0--0-0-0-0--0-0-0--0--0-0-0--|--1--3--||

Verse 2
eb||-------------------------------|---------|-------------------------------|--------||
Bb||-------------------------------|---------|-------------------------------|--------||
Gb||-------------------------------|-SILENT--|-------------------------------|--------||
Db||--2--------2---------2---------|-COMPASS-|--2--------2---------2---------|--3--3--||
Ab||--2--------2---------2---------|---------|--2--------2---------2---------|--3--3--||
Eb||--0--0-0-0-0--0-0-0--0--0-0-0--|---------|--0--0-0-0-0--0-0-0--0--0-0-0--|--1--1--||

eb||-------------------------------|---------|-------------------------------|--------||
Bb||-------------------------------|---------|-------------------------------|--------||
Gb||-------------------------------|-SILENT--|-------------------------------|--------||
Db||--2--------2---------2---------|-COMPASS-|--2--------2---------2---------|--3--5--||
Ab||--2--------2---------2---------|---------|--2--------2---------2---------|--3--5--||
Eb||--0--0-0-0-0--0-0-0--0--0-0-0--|---------|--0--0-0-0-0--0-0-0--0--0-0-0--|--1--3--||

Pre-chorus
eb||-----------|---------|-----------||
Bb||------3-2--|---------|------3-1--||
Gb||----0------|---------|----0------||
Db||--2--------|---------|--2--------||
Ab||-----------|---------|--2--------||
Eb||--0--------|--0-0-0--|-----------||

Chorus: This are the propper chors to the melody, but what thomas plays is a speedy riff 
not sure
        If what i tabbed for it is ok cause is hard to see the clear notes, by the way 
a weird chord on the melody
        how to play it is at the end of the tab, play that as many time as needed for 
chord, also C5-(no) only last one time
        of what i tabbed

Em                        Bm
Tell me when the night si gone
                 Em
Like washed away
                        C5-(no)  B5
Make a wish beneath the Mourning Star

     Em               Bm
eb||---------------|---------------|----------------||
Bb||---------------|---------------|----------------||
Gb||---------------|---------------|----------------||
Db||--------2------|--------4------|--------10------||
Ab||----2-----2----|----5-----5----|----9------9----||
Eb||--0---0-----0--|--7---7-----7--|--8---8------8--||

Verse 2
eb||-------------------------------|---------|-------------------------------|--------||
Bb||-------------------------------|---------|-------------------------------|--------||
Gb||-------------------------------|-SILENT--|-------------------------------|--------||
Db||--2--------2---------2---------|-COMPASS-|--2--------2---------2---------|--3--3--||
Ab||--2--------2---------2---------|---------|--2--------2---------2---------|--3--3--||
Eb||--0--0-0-0-0--0-0-0--0--0-0-0--|---------|--0--0-0-0-0--0-0-0--0--0-0-0--|--1--1--||

eb||-------------------------------|---------|-------------------------------|--------||
Bb||-------------------------------|---------|-------------------------------|--------||
Gb||-------------------------------|-SILENT--|-------------------------------|--------||
Db||--2--------2---------2---------|-COMPASS-|--2--------2---------2---------|--3--5--||
Ab||--2--------2---------2---------|---------|--2--------2---------2---------|--3--5--||
Eb||--0--0-0-0-0--0-0-0--0--0-0-0--|---------|--0--0-0-0-0--0-0-0--0--0-0-0--|--1--3--||

Pre-chorus
eb||-----------|---------|-----------||
Bb||------3-2--|---------|------3-1--||
Gb||----0------|---------|----0------||
Db||--2--------|---------|--2--------||
Ab||-----------|---------|--2--------||
Eb||--0--------|--0-0-0--|-----------||

Chorus: same as above but is played twice

 Em                        Bm
Tell me when the night si gone
                 Em
Like washed away
                        C5-(no)  B5
Make a wish beneath the Mourning Star
 Em                        Bm
When the victory is won
                 Em
The only shade
                       C5-(no)  B5
hunger me the same old mourning star


Middle
eb||-------------------------------|---------|-------------------------------|--------||
Bb||-------------------------------|---------|-------------------------------|--------||
Gb||-------------------------------|-SILENT--|-------------------------------|--------||
Db||--2--------2---------2---------|-COMPASS-|--2--------2---------2---------|--3--3--||
Ab||--2--------2---------2---------|---------|--2--------2---------2---------|--3--3--||
Eb||--0--0-0-0-0--0-0-0--0--0-0-0--|---------|--0--0-0-0-0--0-0-0--0--0-0-0--|--1--1--||

eb||-------------------------------|---------|-------------------------------|--------||
Bb||-------------------------------|---------|-------------------------------|--------||
Gb||-------------------------------|-SILENT--|-------------------------------|--------||
Db||--2--------2---------2---------|-COMPASS-|--2--------2---------2---------|--3--5--||
Ab||--2--------2---------2---------|---------|--2--------2---------2---------|--3--5--||
Eb||--0--0-0-0-0--0-0-0--0--0-0-0--|---------|--0--0-0-0-0--0-0-0--0--0-0-0--|--1--3--||


Guitar solo (i might post it later, im too lazy and its too long  to do it today)
eb||-------------------------------------------||
Bb||-------------------------------------------||
Gb||-------------------------------------------||
Db||-------------------------------------------||
Ab||-------------------------------------------||
Eb||-------------------------------------------||

Chorus: same as above but is played twice

 Em                        Bm
Tell me when the night si gone
                 Em
Like washed away
                        C5-(no)  B5
Make a wish beneath the Mourning Star
 Em                        Bm
When the victory is won
                 Em
The only shade
                       C5-(no)  B5
hunger me the same old mourning star

Outro
eb||--------------------------|-----------------------||
Bb||--------------------------|-----------------------||
Gb||-----------------0-1------|-----------------------||
Db||----2-------2--3-----3-2--|--2--------12----------||
Ab||----2-----2---------------|--2-----12------3--3---||
Eb||----0-0-0-----------------|--0-0-0---------1--1---||

eb||----------------------------|-----------------------||
Bb||----------------------------|-----------------------||
Gb||----------------12-13-------|-----------------------||
Db||--2-------2--15------15-14--|--2--------12----------||
Ab||--2-----2-------------------|--2-----12------3--5---||
Eb||--0-0-0---------------------|--0-0-0---------1--3---||

Keep on playin this until the song has fade completly out


Chords
      Em
eb||--0----2-----------||
Bb||--0----3-----------||
Gb||--0----4-------4---||
Db||--2----4---4---4---||
Ab||--2----2---3---2---||
Eb||--0----------------||
            

comments powered by Disqus
↑ Back to top | Kamelot Tabs for Mourning Star. Lyrics for acoustic guitar and electric guitar. Tablatures and chords are parodies/interpretations of the original songs. You may use it for private study, scholarship, research or language learning purposes only