>
 >
March Of Mephisto

March Of Mephisto Guitar Tabs

Kamelot - March Of Mephisto chords, tabs, tablatures, lyrics

Guitar lessons | Add/correct | Request | Top 50 tabs Artists:  A B C D E F G H I J K L M N O P Q R S T U V W X Y Z 0-9

March Of Mephisto Guitar Tabs – Kamelot

CD, Sheet music, Poster

Do you like March Of Mephisto? Share with your friends now
Bass TabsTabs
| /  slide up
| \  slide down
| h  hammer-on
| p  pull-off
| v  vibrato
| *  harmonic
| #  pinch harmonic                                                            |
| x  Mute note
| b  bend
| r  release bend
| ~  let ring

Tuning: standard, down a half step (Eb Ab Db Gb Bb eb).


Intro (orchestral arranged for guitar, i like to palm mute the whole thing.)
|-------------------------------------------------------|
|-------------------------------------------------------|
|-------------------------------------------------------|
|-9-9-9-7-10-9----9-9-9-7-10-9----9-9-9-7-10-9--9-7-6---|
|-----------------------------------------------------7-|
|-------------------------------------------------------| x2

Intro 2 (actual guitar this time)
|----------------------------------------------------------------------------|
|----------------------------------------------------------------------------|
|----9~------------------10---------------------9----------------------------|
|-xx-9~xx-/10-9-7-9--x-x-10-xx-/12-10-9-7--xxxx-9-xx-/10-9-7-9x--9-7-4-xx-10-|
|-xx-7~xx-/-8-7-5-7--x-x--8-xx-/10--8-7-5--xxxx-7-xx-/-8-7-5-7x--7-4-2-xx--8-|
|----------------------------------------------------------------------------|

I've really got no idea on the pinch harmonics... i suck at them. I'll put 
down the fretted-note equivalent, but i'd appreciate if someone could send
me the pinch harmonic frets.
|-------16------------------20------------------22------------------------------|
|-------------------------------------------------------------------------------|
|-------------------------------------------------------------------------------|
|-------------------------------------------------------------------------------|
|-2-2-2----2-2-2-2-3-2--3-3----3-3-3-3-3----4-4----4-4-4-4-4----5-5-5v-6-6-6--6v|
|-0-0-0----0-0-0-0-1-0--1-1----1-1-1-1---1--2-2----2-2-2-2---2--3-3----4-4-4----|
PM. . .    . . . . . .  . .    . . . .      . .    . . . .      . .    . . .

|----|
|----|
|----|
|-2~-|
|-2~-|
|-0~-|

Verse 1 ("You know just who I am...")
|-----------------------------------------------------------------------|
|-These slides are played faintly at the very beginning- listen closely-|
|-----------------------------------------------------------------------|
|-/4-/5-/7-/9-----------------------------------------------------------|
|-----------------------------------------------------------------------|
|-----------------------------------------------------------------------|

Chorus ("Wailing your sorrow is only my way to comfort you...")
|----------------------------------------------------|
|----------------------------------------------------|
|----------------------------------------------------|
|-xx-99-xx-1010-xx-99-xx-77-xx-1212-xx-1010-xx-9-----|
|-xx-77-xx--8-8-xx-77-xx-55-xx-1010-xx--8-8-xx-7-7br-|
|----------------------------------------------------|

("Reminders of innocent youth" -Shagrath vocals)
|----------------------------------------------------|
|----------------------------------------------------|
|----------------------------------------------------|
|-xx-99-xx-1010-xx-99-xx-77-xx-1212-xx-1010-xx-9-2-2-|
|-xx-77-xx--8-8-xx-77-xx-55-xx-1010-xx--8-8-xx-7-2-2-|
|------------------------------------------------0-0-|whole chorus x2
PM                                               . .

Add one more of those palm muted chords on the repeat.


Verse 2
|------------|
|------------|
|------------|
|-2~---------|
|-2~---------|
|-0~---------| No other guitar in verse 2

Chorus

Post-chorus play:
|-------|
|-------|
|-9-9-9-|
|-9-9-9-|
|-7-7-7 |
|-------|

And then play Intro 2.

(Violin interlude- "Chase the heathen call, we belong you and I...)

Keyboard solo- I MIGHT get this tabbed for guitar sometime, but don't hold your breath

Chorus

Post-chorus

Chorus

  "I am the urge of the flesh" Play this right to the lyrics.
|-----------------|
|-----------------|
|--9-9-9-9-7-7-9--|
|--9-9-9-9-7-7-9--|
|--7-7-7-7-5-5-7--|
|-----------------|

Intro 2 til fadeout and you're finished :D





Comments


Popular Kamelot tabs & chords
Center Of The Universe Bass Tabs
Song For Jolee Chords
Blucher Tabs
Haunting Somewhere In Time 1 Tabs
Hunters Season Intro Tabs
Iii Ways To Epica Tab Intro Tabs
Mourning Star Tabs
A Sailormans Hymn Ukulele
Center Of The Universe Ukulele
Dont You Cry Ukulele


Song lyrics



↑ Back to top | Tablatures and chords are parodies/interpretations of the original songs. You may use it for private study, scholarship, research or language learning purposes only
© 2014 AZChords.com Contact us | Privacy policy | DMCA | Add/correct tabs | Request tabs | Top 50 tabs