>
 >
Lost And Damned

Lost And Damned Guitar Tabs

Kamelot - Lost And Damned chords, tabs, tablatures, lyrics

Guitar lessons | Add/correct | Request | Top 50 tabs Artists:  A B C D E F G H I J K L M N O P Q R S T U V W X Y Z 0-9

Lost And Damned Guitar Tabs – Kamelot

CD, Sheet music, Poster

Do you like Lost And Damned? Share with your friends now
Tabs
Lost & Damned
BY
Kamelot

i just exported the guitar pro version into a text version

      W                   W                   W                 
D#||-------------------|-------------------|-------------------|
A#||-------------------|-------------------|-------------------|
F#||-------------------|--2----------------|--L----------------|
C#||-------------------|--2----------------|--L----------------|
G#||-------------------|--0----------------|--L----------------|
C#||-------------------|-------------------|-------------------|


  W                   W                   W                   W                 
-------------------|-------------------|-------------------|-------------------|
-------------------|-------------------|-------------------|-------------------|
--L----------------|--L----------------|--2----------------|--L----------------|
--L----------------|--L----------------|--2----------------|--L----------------|
--L----------------|--L----------------|--0----------------|--L----------------|
-------------------|-------------------|-------------------|-------------------|


  W                   H         H          
-------------------|----------------------|
-------------------|----------------------|
--L----------------|--L-------------------|
--L----------------|--L-------------------|
--L----------------|--L-------------------|
-------------------|-----------12\--------|


  S S S  S S S  S S S  S S S  S S S  S    S S S  S S S  S S S  S S E   T  T E   
---------------------------------------|---------------------------------------|
---------------------------------------|---------------------------------------|
---------------------------------------|---------------------------------------|
--0-0-7p-0-0-6p-0-0-5p-0-0-3p-0-0-2h-3-|--0-0-7p-0-0-6p-0-0-5p-0-0-3~--5p-3-2--|
---------------------------------------|---------------------------------------|
---------------------------------------|---------------------------------------|


  S S S  S S S  S S S  S S S  S S S  S    S S S  S S S  S S S  S S  S  Q     
---------------------------------------|------------------------------------|
---------------------------------------|------------------------------------|
---------------------------------------|------------------------------------|
--0-0-7p-0-0-6p-0-0-5p-0-0-3p-0-0-2h-3-|--0-0-7p-0-0-6p-0-0-5p-0-0----------|
---------------------------------------|------------------------------------|
---------------------------------------|---------------------------12\-L----|


                       |---3---|                                      
   E.   E.   E   Q     S   S   S  S  S    E.  E.   E   Q      Q       
---------------------------------------|-----------------------------|
--10---10---11~--L----10h-11p-10-------|--8---8---10~--L----(10)\----|
---------------------------------12-10-|-----------------------------|
---------------------------------------|-----------------------------|
---------------------------------------|-----------------------------|
---------------------------------------|-----------------------------|


   S  S  S  S  S  S  S  S S  S  S S  S  S S  S    S S S S S S Q.       Q      
-----------------------------------------------|-----------------------------|
--10-11-13-10-11-13-10-11-8-10-11-8-10-11-8-10-|--5-6-8-5-6-8----------------|
-----------------------------------------------|--------------7~-------------|
-----------------------------------------------|-----------------------------|
-----------------------------------------------|-----------------------------|
-----------------------------------------------|----------------------12\----|


                 3       |---3---|   
   E.   E.   E   Q.      E   E   E   
------------------------10--12--13--|
--10---10---11~--L------------------|
------------------------------------|
------------------------------------|
------------------------------------|
------------------------------------|


       |---3---|          |---3---|               
   E   S   S   S  E   E   S   S   S  S  S  Q      
--12--10h-12p-10---------------------------------|
-----------------13--11--10h-11p-10-------10~----|
------------------------------------12-10--------|
-------------------------------------------------|
-------------------------------------------------|
-------------------------------------------------|


   S  S  S  S  S  S  S  S  S  S S  S  S S  S  S  
------------------------------------------------|
--13-11-10-13-11-10-13-11-----------------------|
--------------------------12-10-9-12-10-9-12-10-|
------------------------------------------------|
------------------------------------------------|
------------------------------------------------|


   S  S S  S S   S  Q.       Q         S  S  S  S S  S  S S  S  S S S S  S S S  
-----------------------------------|-------------------------------------------|
-----------------------------------|--11-10------------------------------------|
--12-10-9----9h-10-----------------|--------12-10-9----------------------------|
----------12-------12~-------------|----------------12-10-8----------------7-8-|
-----------------------------------|------------------------12-10-8-7-8-10-----|
----------------------------12\----|-------------------------------------------|


   Q.       Q.      Q        H         H           W                 
--------------------------|---------------------|-------------------|
--------------------------|---------------------|-------------------|
--------------------------|---------------------|-------------------|
--10~---------------8~----|--7\-----------------|-------------------|
-----------10~------------|---------------------|-------------------|
--------------------------|---------------------|-------------------|


  W                   W                   W                   W                 
-------------------|-------------------|-------------------|-------------------|
-------------------|-------------------|-------------------|-------------------|
-------------------|-------------------|-------------------|-------------------|
-------------------|-------------------|-------------------|-------------------|
-------------------|-------------------|-------------------|-------------------|
-------------------|-------------------|-------------------|-------------------|


                                          PM PM PM PM PM PM PM PM  
  W                   W                   E  E  E  E  E  E  E  E   
-------------------|-------------------|--------------------------|
-------------------|-------------------|--------------------------|
-------------------|-------------------|--------------------------|
-------------------|-------------------|--------5-----5-----5-----|
-------------------|-------------------|--5--8-----8-----8-----8--|
-------------------|-------------------|--------------------------|


  PM       PM PM PM PM PM PM    PM PM PM PM PM PM PM PM  
     |-3-|                                               
  E  S S S E  E  E  E  E  E     E  E  E  E  E  E  E  E   
-----------------------------|--------------------------|
-----------------------------|--------------------------|
-----------------------------|--------------------------|
-----------5-----5-----5-----|--------5-----5-----5-----|
--------------7-----7-----7--|-----5-----5-----5-----5--|
--7--x-x-x-------------------|--8-----------------------|


  PM       PM                         PM PM PM PM PM PM PM PM  
     |-3-|       |--3--|                                       
  E  S S S E  E  S  S  S  E  E  E     E  E  E  E  E  E  E  E   
-----------------------------------|--------------------------|
-----------------------------------|--------------------------|
-----------------------------------|--------------------------|
--------------8--7h-8p-7-----------|--------5-----5-----5-----|
-------------------------10--8--7--|-----8-----8-----8-----8--|
--7--x-x-x-7-----------------------|--8-----------------------|


  PM PM PM PM PM PM PM PM                                                     
  E  E  E  E  E  E  E  E     E   E  E  E  E  E  E  E     H.            Q      
--------------------------|---------------------------|----------------------|
--------------------------|---------------------------|----------------------|
--------------------------|---------------------------|----------------------|
-----3--5--3--5--3--5--3--|---------5-----5-----5-----|--7-------------------|
--3-----------------------|--5h--8-----8-----8-----8--|--5-------------------|
--------------------------|---------------------------|---------------12\----|


  S S S S S S S S S S S S S S S S    S S S S S S S S S S S S S  S S  S  
----------------------------------|------------------------------------|
----------------------------------|------------------------------------|
----------------------------------|------------------------------------|
----------------------------------|------------------------------------|
----------------------------------|-------------------------------3h-5-|
--0-0-0-0-0-0-0-0-0-0-0-0-0-0-0-0-|--0-0-0-0-0-0-0-0-0-0-0-0-3p-0------|


  S S S S S S S S S S S S S S S S    E.  E.  E.  S S S S S S  S  
----------------------------------|-----------------------------|
----------------------------------|-----------------------------|
----------------------------------|-----------------------------|
----------------------------------|--5---5---7------------------|
----------------------------------|--3---3---5---3-1-0----------|
--0-0-0-0-0-0-0-0-0-0-0-0-0-0-0-0-|--------------------5-3-2h-3-|


  S S S S S S S S S S S S S S S S    S S S S S S S S S S S S S  S S  S  
----------------------------------|------------------------------------|
----------------------------------|------------------------------------|
----------------------------------|------------------------------------|
----------------------------------|------------------------------------|
----------------------------------|-------------------------------3h-5-|
--0-0-0-0-0-0-0-0-0-0-0-0-0-0-0-0-|--0-0-0-0-0-0-0-0-0-0-0-0-3p-0------|


  E.  E.  E  S S S S S S S S    E.  E.  E.  S S S S S S  S    W                 
-----------------------------|-----------------------------|-------------------|
-----------------------------|-----------------------------|-------------------|
-----------------------------|-----------------------------|-------------------|
--3---3---5------------------|--2---5---7------------------|--3----------------|
--1---1---3--3-3-3-3-3-3-3-3-|--0---3---5---3-1-0----------|--1----------------|
-----------------------------|--------------------5-3-2h-3-|-------------------|


  W                   H         H           W                 
-------------------|---------------------|-------------------|
-------------------|---------------------|-------------------|
-------------------|---------------------|-------------------|
--5----------------|--7\-----------------|-------------------|
--3----------------|--5\-----------------|-------------------|
-------------------|---------------------|-------------------|


  W                   W                   W                   W                 
-------------------|-------------------|-------------------|-------------------|
-------------------|-------------------|-------------------|-------------------|
-------------------|-------------------|-------------------|-------------------|
-------------------|-------------------|-------------------|-------------------|
-------------------|-------------------|-------------------|-------------------|
-------------------|-------------------|-------------------|-------------------|


                                          PM PM PM PM PM PM PM PM  
  W                   W                   E  E  E  E  E  E  E  E   
-------------------|-------------------|--------------------------|
-------------------|-------------------|--------------------------|
-------------------|-------------------|--------------------------|
-------------------|-------------------|--------5-----5-----5-----|
-------------------|-------------------|--5--8-----8-----8-----8--|
-------------------|-------------------|--------------------------|


  PM       PM PM PM PM PM PM    PM PM PM PM PM PM PM PM  
     |-3-|                                               
  E  S S S E  E  E  E  E  E     E  E  E  E  E  E  E  E   
-----------------------------|--------------------------|
-----------------------------|--------------------------|
-----------------------------|--------------------------|
-----------5-----5-----5-----|--------5-----5-----5-----|
--------------7-----7-----7--|-----5-----5-----5-----5--|
--7--x-x-x-------------------|--8-----------------------|


  PM       PM                         PM PM PM PM PM PM PM PM  
     |-3-|       |--3--|                                       
  E  S S S E  E  S  S  S  E  E  E     E  E  E  E  E  E  E  E   
-----------------------------------|--------------------------|
-----------------------------------|--------------------------|
-----------------------------------|--------------------------|
--------------8--7h-8p-7-----------|--------5-----5-----5-----|
-------------------------10--8--7--|-----8-----8-----8-----8--|
--7--x-x-x-7-----------------------|--8-----------------------|


  PM PM PM PM PM PM PM PM                                                     
  E  E  E  E  E  E  E  E     E   E  E  E  E  E  E  E     H.            Q      
--------------------------|---------------------------|----------------------|
--------------------------|---------------------------|----------------------|
--------------------------|---------------------------|----------------------|
-----3--5--3--5--3--5--3--|---------5-----5-----5-----|--7-------------------|
--3-----------------------|--5h--8-----8-----8-----8--|--5-------------------|
--------------------------|---------------------------|---------------12\----|


  S S S S S S S S S S S S S S S S    S S S S S S S S S S S S S  S S  S  
----------------------------------|------------------------------------|
----------------------------------|------------------------------------|
----------------------------------|------------------------------------|
----------------------------------|------------------------------------|
----------------------------------|-------------------------------3h-5-|
--0-0-0-0-0-0-0-0-0-0-0-0-0-0-0-0-|--0-0-0-0-0-0-0-0-0-0-0-0-3p-0------|


  S S S S S S S S S S S S S S S S    E.  E.  E.  S S S S S S  S  
----------------------------------|-----------------------------|
----------------------------------|-----------------------------|
----------------------------------|-----------------------------|
----------------------------------|--5---5---7------------------|
----------------------------------|--3---3---5---3-1-0----------|
--0-0-0-0-0-0-0-0-0-0-0-0-0-0-0-0-|--------------------5-3-2h-3-|


  S S S S S S S S S S S S S S S S    S S S S S S S S S S S S S  S S  S  
----------------------------------|------------------------------------|
----------------------------------|------------------------------------|
----------------------------------|------------------------------------|
----------------------------------|------------------------------------|
----------------------------------|-------------------------------3h-5-|
--0-0-0-0-0-0-0-0-0-0-0-0-0-0-0-0-|--0-0-0-0-0-0-0-0-0-0-0-0-3p-0------|


                                                SH             
  E.  E.  E  S S S S S S S S    E.  E.  E  E    E   S  S  E    
-----------------------------|--------------------------------|
-----------------------------|--------------------------------|
-----------------------------|--------------------------------|
--3---3---5------------------|--2---5---7--L------------------|
--1---1---3--3-3-3-3-3-3-3-3-|--0---3---5--L--<>5~------------|
-----------------------------|----------------------5p-3-12\--|


  S S S  S S S  S S S  S S S  S S S  S    S S S  S S S  S S S  S S E   T  T E   
---------------------------------------|---------------------------------------|
---------------------------------------|---------------------------------------|
---------------------------------------|---------------------------------------|
--0-0-7p-0-0-6p-0-0-5p-0-0-3p-0-0-2h-3-|--0-0-7p-0-0-6p-0-0-5p-0-0-3~--5p-3-2--|
---------------------------------------|---------------------------------------|
---------------------------------------|---------------------------------------|


  S S S  S S S  S S S  S S S  S S S  S    S S S  S S S  S S S  S S  S  Q     
---------------------------------------|------------------------------------|
---------------------------------------|------------------------------------|
---------------------------------------|------------------------------------|
--0-0-7p-0-0-6p-0-0-5p-0-0-3p-0-0-2h-3-|--0-0-7p-0-0-6p-0-0-5p-0-0----------|
---------------------------------------|------------------------------------|
---------------------------------------|---------------------------12\-L----|


                                                                     SH       
  S S S  S S S  S S S  S S S  S S S  S    S S S  S S S  S S S  S S   S  Q     
---------------------------------------|-------------------------------------|
---------------------------------------|-------------------------------------|
---------------------------------------|-------------------------------------|
--0-0-7p-0-0-6p-0-0-5p-0-0-3p-0-0-2h-3-|--0-0-7p-0-0-6p-0-0-5p-0-0-<>3~-L----|
---------------------------------------|-------------------------------------|
---------------------------------------|-------------------------------------|


  S S S  S S S  S S S  S S S  S S S  S    S S S  S S S  S S S  S S  S  Q     
---------------------------------------|------------------------------------|
---------------------------------------|------------------------------------|
---------------------------------------|------------------------------------|
--0-0-7p-0-0-6p-0-0-5p-0-0-3p-0-0-2h-3-|--0-0-7p-0-0-6p-0-0-5p-0-0----------|
---------------------------------------|------------------------------------|
---------------------------------------|---------------------------12\-L----|


                      |---3---|       |--3--|  
    E.   E.   E   E   S   S   S  E    S  S  S  
-------------------------------------13-12-13-|
--/12---12---13~--L--12h-13p-12---------------|
--------------------------------14~-----------|
----------------------------------------------|
----------------------------------------------|
----------------------------------------------|


   |--3--|  |--3--|  |--3--|                          
   S  S  S  S  S  S  S  S  S  S  S  E.     S   Q      
--15-13-12-------------------------------------------|
-----------15-15-13-12-------------------------------|
-----------------------14-12-11-14-14b~---14b-12~----|
-----------------------------------------------------|
-----------------------------------------------------|
-----------------------------------------------------|


   |--3--|  |--3--|  |--3--|  |--3--|  |--3--|  |--3--|  |--3--|  |--3--|  
   S  S  S  S  S  S  S  S  S  S  S  S  S  S  S  S  S  S  S  S  S  S  S  S  
--------------------------------------12-13-15-12-13-15-12-13-15-15-12-13-|
--14-12-11-11-12-14-12-11-12-14-12-11-------------------------------------|


                                       W          
   |--3--|  |--3--|  |--3--|  |--3--|             
   S  S  S  S  S  S  S  S  S  S  S  S  H          
--15-12-14-15-12-12------------------------------|
--------------------15-13-12-13-12---------------|
-----------------------------------14-14~--------|
-------------------------------------------------|
-------------------------------------------------|
-------------------------------------------------|


   S  S  S  S E   S  S  S  S E   S  S  S  S  
-----------17-------------19-------------20-|
--17-19-20-------17-19-20-------17-19-17----|
--------------------------------------------|
--------------------------------------------|
--------------------------------------------|
--------------------------------------------|


  S  S  S  S  S  S  S  S  S  S  E   Q        Q.       E   H          
--L-19-17----17--------------------------|--------------------------|
----------20----20-19-17-20-19-----------|--------------------------|
-------------------------------19~--L----|--16~------17-------------|
-----------------------------------------|---------------19\--------|
-----------------------------------------|--------------------------|
-----------------------------------------|--------------------------|


   E.   E.   E   H           E.   E.   E   E.  E.   E   
--------------------------|----------------------------|
--------------------------|----------------------------|
--12---11-----------------|------10---12--10---9---10--|
------------14~--L--------|--8-------------------------|
--------------------------|----------------------------|
--------------------------|----------------------------|


   E.   E.   E   E.   E.   E       W                    W                 
-------------------------------|---------------------|-------------------|
------------10-----------------|---------------------|-------------------|
-------12-------12---10---12S--|--14~----------------|-------------------|
--10---------------------------|---------------------|-------------------|
-------------------------------|---------------------|-------------------|
-------------------------------|---------------------|-------------------|


  W                   W                   W                   W                 
-------------------|-------------------|-------------------|-------------------|
-------------------|-------------------|-------------------|-------------------|
-------------------|-------------------|-------------------|-------------------|
-------------------|-------------------|-------------------|-------------------|
-------------------|-------------------|-------------------|-------------------|
-------------------|-------------------|-------------------|-------------------|


  W                   W                   W                   W                 
-------------------|-------------------|-------------------|-------------------|
-------------------|-------------------|-------------------|-------------------|
-------------------|-------------------|-------------------|-------------------|
-------------------|-------------------|-------------------|-------------------|
-------------------|-------------------|-------------------|-------------------|
-------------------|-------------------|-------------------|-------------------|


  S S E  E  E  H           S S E  E  E  Q    S S E   
------------------------|---------------------------|
------------------------|---------------------------|
------------------------|---------------------------|
------------------------|---------------------------|
--0-0-0-----0-----------|--0-0-0-----0-----------3--|
--0-0-0-----0-----------|--0-0-0-----0-------3-3-3--|


  S S E  E  E  E  S S E  E     S S E  E  E  E  S S S S E   
----------------------------|-----------------------------|
----------------------------|-----------------------------|
----------------------------|-----------------------------|
----------------------------|-----------------------------|
------5-----5---------0-----|------3-----0-------------0--|
--5-5-5-----5-----0-0-0-----|--3-3-3-----0-----0-0-0-0-0--|


  S S E  E  E  H           S S E  E  E  Q    S S E   
------------------------|---------------------------|
------------------------|---------------------------|
------------------------|---------------------------|
------------------------|---------------------------|
--0-0-0-----0-----------|--0-0-0-----0-----------3--|
--0-0-0-----0-----------|--0-0-0-----0-------3-3-3--|


  S S E  E  E  E  S S E  E     S S E  E  E  E  S S S S S S  
----------------------------|------------------------------|
----------------------------|------------------------------|
----------------------------|------------------------------|
----------------------------|------------------------------|
------5-----5---------0-----|------3-----0-----------------|
--5-5-5-----5-----0-0-0-----|--3-3-3-----0-----0-0-0-0-0-0-|


         PM    PM PM    PM           PM    PM PM    PM  
  E  S S E  E  E  E  E  E     E  S S E  E  E  E  E  E   
---------------------------|---------------------------|
---------------------------|---------------------------|
---------------------------|---------------------------|
--7---------7--------7-----|--2---------2--------2-----|
--5--5-5-5--5--5--5--5--5--|--0--0-0-0--0--0--0--0--0--|
---------------------------|---------------------------|


         PM    PM PM    PM           PM    PM PM    PM  
  E  S S E  E  E  E  E  E     E  S S E  E  E  E  E  E   
---------------------------|---------------------------|
---------------------------|---------------------------|
---------------------------|---------------------------|
--3---------3--------3-----|--2---------2--------2-----|
--1--1-1-1--1--1--1--1--1--|--0--0-0-0--0--0--0--0--0--|
---------------------------|---------------------------|


  E  S S E  S S E  S S E  S S    E  S S E  S S E  S S E  S S  
------------------------------|------------------------------|
------------------------------|------------------------------|
------------------------------|------------------------------|
--3------3------3------3------|--5------5------5------5------|
--1--1-1-1--1-1-1--1-1-1--1-1-|--3--3-3-3--3-3-3--3-3-3--3-3-|
------------------------------|------------------------------|


                                 PM                  SH     
  E  S S E  S S E  S S E  S S    E  E  E  E  E  E    Q      
------------------------------|----------------------------|
------------------------------|----------------------------|
------------------------------|----------------------------|
--8------8------8------8------|-----7--5--7-----7----------|
--5--5-5-5--5-5-5--5-5-5--5-5-|--5-----------8-----<>7~----|
------------------------------|----------------------------|


  S S S S S S S S S S S S S S S S    S S S S S S S S S S S S S  S S  S  
----------------------------------|------------------------------------|
----------------------------------|------------------------------------|
----------------------------------|------------------------------------|
----------------------------------|------------------------------------|
----------------------------------|-------------------------------3h-5-|
--0-0-0-0-0-0-0-0-0-0-0-0-0-0-0-0-|--0-0-0-0-0-0-0-0-0-0-0-0-3p-0------|


  S S S S S S S S S S S S S S S S    E.  E.  E.  S S S S S S  S  
----------------------------------|-----------------------------|
----------------------------------|-----------------------------|
----------------------------------|-----------------------------|
----------------------------------|--5---5---7------------------|
----------------------------------|--3---3---5---3-1-0----------|
--0-0-0-0-0-0-0-0-0-0-0-0-0-0-0-0-|--------------------5-3-2h-3-|


  S S S S S S S S S S S S S S S S    S S S S S S S S S S S S S  S S  S  
----------------------------------|------------------------------------|
----------------------------------|------------------------------------|
----------------------------------|------------------------------------|
----------------------------------|------------------------------------|
----------------------------------|-------------------------------3h-5-|
--0-0-0-0-0-0-0-0-0-0-0-0-0-0-0-0-|--0-0-0-0-0-0-0-0-0-0-0-0-3p-0------|


                                                SH             
  E.  E.  E  S S S S S S S S    E.  E.  E  E    E   S  S  E    
-----------------------------|--------------------------------|
-----------------------------|--------------------------------|
-----------------------------|--------------------------------|
--3---3---5------------------|--2---5---7--L------------------|
--1---1---3--3-3-3-3-3-3-3-3-|--0---3---5--L--<>5~------------|
-----------------------------|----------------------5p-3-12\--|


  S S S S S S S S S S S S S S S S    S S S S S S S S S S S S S  S S  S  
----------------------------------|------------------------------------|
----------------------------------|------------------------------------|
----------------------------------|------------------------------------|
----------------------------------|------------------------------------|
----------------------------------|-------------------------------3h-5-|
--0-0-0-0-0-0-0-0-0-0-0-0-0-0-0-0-|--0-0-0-0-0-0-0-0-0-0-0-0-3p-0------|


  S S S S S S S S S S S S S S S S    E.  E.  E.  S S S S S S  S  
----------------------------------|-----------------------------|
----------------------------------|-----------------------------|
----------------------------------|-----------------------------|
----------------------------------|--5---5---7------------------|
----------------------------------|--3---3---5---3-1-0----------|
--0-0-0-0-0-0-0-0-0-0-0-0-0-0-0-0-|--------------------5-3-2h-3-|


  S S S S S S S S S S S S S S S S    S S S S S S S S S S S S S  S S  S  
----------------------------------|------------------------------------|
----------------------------------|------------------------------------|
----------------------------------|------------------------------------|
----------------------------------|------------------------------------|
----------------------------------|-------------------------------3h-5-|
--0-0-0-0-0-0-0-0-0-0-0-0-0-0-0-0-|--0-0-0-0-0-0-0-0-0-0-0-0-3p-0------|


                                                SH             
  E.  E.  E  S S S S S S S S    E.  E.  E  E    E   S  S  E    
-----------------------------|--------------------------------|
-----------------------------|--------------------------------|
-----------------------------|--------------------------------|
--3---3---5------------------|--2---5---7--L------------------|
--1---1---3--3-3-3-3-3-3-3-3-|--0---3---5--L--<>5~------------|
-----------------------------|----------------------5p-3-12\--|


  E  E.  E.  S  S S S  S S S  S    E.   E.  E   Q    Q      
--------------------------------|-------------------------||
--------------------------------|-------------------------||
--------------------------------|-----------7\--L---------||
--0--6---5---3p-0-0-1p-0-0-1p-0-|--7---10-----------------||
--------------------------------|-------------------------||
--------------------------------|-------------------------||




Duration Legend
---------------
W - whole
H - half
Q - quarter
E - 8th
S - 16th
T - 32nd
X - 64th
. - note dotted
|-n-|  - n-tuplets


Tablature Legend
----------------
L - tied note
x - dead note
g - grace note
(n) - ghost note
> - accentuded note
NH - natural harmonic
AH - artificial harmonic
TH - tapped harmonic
SH - semi harmonic
PH - pitch harmonic
h - hammer on
p - pull off
b - bend
br - bendRelease
pb - preBend
pbr - preBendRelease
brb - bendReleaseBend
\n/ - tremolo bar dip
\n - tremolo bar dive
-/n - tremolo bar Release up
/n\ - tremolo bar inverted dip
/n - tremolo bar return
-\n - tremolo bar Release down
S - shift slide
s - legato slide
/ -  slide into from below or out of upwards
\ -  slide into from above or out of downwards
~ - vibrato
W - wide vibrato
tr - trill
TP - tremolo picking
T - tapping
S - slap
P - pop
< - fade in
^ - brush up
v - brush down





Comments


Popular Kamelot tabs & chords
On The Coldest Winter Night Bass Tabs
Blcher Intro Tabs
Haunting Somewhere In Time Tabs
Haunting Somewhere In Time 1 Tabs
March Of Mephisto Tabs
Rule The World Tabs
Siege Intro 1 Tabs
The Human Stain Tabs
The Inquisitor Tabs
Center Of The Universe Ukulele


Song lyrics



↑ Back to top | Tablatures and chords are parodies/interpretations of the original songs. You may use it for private study, scholarship, research or language learning purposes only
© 2014 AZChords.com Contact us | Privacy policy | DMCA | Add/correct tabs | Request tabs | Top 50 tabs