» » »

Kamelot, Like The Shadows Tabs (ver.1)

Artists:  A B C D E F G H I J K L M N O P Q R S T U V W X Y Z # 

Like The Shadows Tabs (ver.1)

Kamelot Tabs
Rating:
0/5 (0 votes)
Hard to play? Try these video lessons and learn fast.
                band: Kamelot

Tunning: half step down
Gtr I (Eb Ab Db Gb Bb Eb) - 'Clean Guitar'
Gtr II (Eb Ab Db Gb Bb Eb) - 'Distered Guitar'

Notes: 
Solo is missing - sorry, I'm not that good.
For correct order of riffs, please, listen to the original song.
Any comments and corrections are welcomed.


[Into/Verses]  used also at "In a glimpse from a quiet childhood..."

  Gtr I
|-----0-----------|---------------|---0-----------|-------------|
|--------3-1-0----|-1--0------0---|------3-1-0----|-1--0--------|
|-----------------|-------2-0-----|---------------|-------2-0---|
|---2----------3--|---------------|-2----------3--|-----------2-|
|-0---------------|-------------0-|---------------|-------------|
|-----------------|---------------|---------------|-------------|

[Into/Verses]                     [Intro-Bridge]

|-----0-----------|---------------|-------------|
|--------3-1-0----|-1--0------0---|-------------|
|-----------------|-------2-0-----|---0-----0---|
|---2----------3--|---------------|-2-----0-----|
|-0---------------|-------------3-|-----2-------|
|-----------------|---------------|-----------3-|

[Bridge]
  Gtr II
    PM|             PM----------|     PM|
|-----------------|-----------------|-----------------|------|
|-----------------|-----------------|-----------------|------|
|-9-----10--7--9--|---------------9-|-----10--7--5----|-4----|
|-9-----10--7--9--|---------------9-|-----10--7--5----|-4----|
|-7------8--5--7--|---------------7-|------8--5--3----|-2----|
|---0-0-----------|-0-0-0-0-0-0-0---|-0-0-------------|------|


    PM|              PM----------|     PM|
|----------------|-----------------|-------------------|------|
|----------------|-----------------|-------------------|------|
|-9-----10--7--9-|-9---------------|-9-----10--7--5----|-4----|
|-9-----10--7--9-|-9---------------|-9-----10--7--5----|-4----|
|-7------8--5--7-|-7---------------|-7------8--5--3----|-2----|
|---0-0----------|---0-0-0-0-0-0-0-|---0-0-------------|------|


[Chorus]

"Like the shadows..."
|--------------|-------------|----------------|
|--------------|-------------|----------------|
|-9---9--9--7--|-7--5----5---|-5--4--9-9-7----|
|-9---9--9--7--|-7--5----5---|-5--4--9-9-7----|
|-7---7--7--5--|-5--3----3---|-3--2--7-7-5----|
|---0----------|-----------0-|----------------|

|--------------|-------------|------------|
|--------------|-------------|------------|
|-9---9--9--7--|-7--5----5---|-5--4--7----|
|-9---9--9--7--|-7--5----5---|-5--4--7----|
|-7---7--7--5--|-5--3----3---|-3--2--5----|
|---0----------|-----------0-|------------|
            

comments powered by Disqus
↑ Back to top | Kamelot Tabs for Like The Shadows. Lyrics for acoustic guitar and electric guitar. Tablatures and chords are parodies/interpretations of the original songs. You may use it for private study, scholarship, research or language learning purposes only