>
 >
Kamelots Glory

Kamelots Glory Guitar Tabs

Kamelot - Kamelots Glory chords, tabs, tablatures, lyrics

Guitar lessons | Add/correct | Request | Top 50 tabs Artists:  A B C D E F G H I J K L M N O P Q R S T U V W X Y Z 0-9

Kamelots Glory Guitar Tabs – Kamelot

CD, Sheet music, Poster

Do you like Kamelots Glory? Share with your friends now
Tabs

GLORY
As recorded by Kamelot
(From the 1999 Album THE FOURTH LEGACY)

        

Words by Roy Khan Music by Thomas Youngblood
Arranged by Thomas Youngblood Roy Khan

Gtr I (D# G# C# F# A# D#) - 'Untitled'
Gtr II (D# G# C# F# A# D#) - 'Untitled'
Gtr III (D# G# C# F# A# D#) - 'Untitled'

 Intro
  Q.=53
  Am    E      C     G      C      G       Am
 6/8
  Gtr I
  E E E Q.     E E E Q.      E E E E E E   E S S S S S S S S S S
|------------|-----0------|-^0-----------|-------0---------------|
|-1-1-1-0----|-1-3---3----|-^1-3-1-0-----|-----1---1---1---1---1-|
|-2-2-2-1----|-0-----0----|-^0-------2-0-|---2-------------------|
|-2-2-2-2----|------------|-^2-----------|-----------3---0---2---|
|-0-0-0------|-3----------|-^3-----------|-0---------------------|
|-------0----|-------3----|--------3-----|-----------------------|


  Am       E             C        G
 6/8
   E  E  E  E  S S S S    E  E  E  E  E E
|------------------0---|--------0-----0-1-|
|--1--1--1--0----0---0-|--1--3-----3------|
|--2--2--2--1--1-------|--0--------0------|
|--2--2--2--2----------|------------------|
|--0--0--0-------------|--3---------------|
|-----------0----------|-----------3------|
|
| Gtr II
|  E  E  E  Q.            E  E  E  Q.
|----------------------|------------------|
|-13-13-13-12----------|-13-15-17-15------|
|-14-14-14-13----------|-12-16-17-16------|
|----------------------|------------------|
|----------------------|------------------|
|----------------------|------------------|


  C           G          G/F
   E  E     E  E  E  E    E  S S E Q.
|-^0-------------------|-----------------||
|-^1--3-----1--0-------|-------0---------||
|-^0--------------2--0-|-----0---0-------||
|-^2-------------------|-----------------||
|-^3-------------------|-----------------||
|--------------3-------|--1--------1-----||
|
|                         >
|  E  E     E  E  E  E    H.
|----------------17-15-|-17--------------||
|-17-15tr5-13-12-------|-----------------||
|-17-16tr5-14-12-------|-----------------||
|----------------14-12-|-15--------------||
|----------------------|-----------------||
|----------------------|-----------------||
   H              E  E    H.


   Verse
    Am    E           C     G          C      G       Am
    E E E E S S S S   E E E E. S S S    E E E E E E   E S S S S S S S S S S
||--------------0---|-----0----------|-^0-----------|-------0----------------|
||o-1-1-1-0---0---0-|-1-----3----3---|-^1-3-1-0-----|-----1---1---1---1---1--|
||--2-2-2-1-1-------|-0-0---0--0---0-|-^0-------2-0-|---2--------------------|
||--2-2-2-2---------|-2--------------|-^2-----------|-----------3---0---2----|
||o-0-0-0-----------|-3--------------|-^3-----------|-0----------------------|
||--------0---------|-------3--------|--------3-----|------------------------|


  1.
  Am    E           C     G          C      G       Am
  E E E E S S S S   E E E E. S S S    E E E E E E   E S S S S Q.
|-------------0---|-----0----------|-^0-----------|-------0---------||
|-1-1-1-0---0---0-|-1-----3----3---|-^1-3-1-0-----|-----1---1------o||
|-2-2-2-1-1-------|-0-0---0--0---0-|-^0-------2-0-|---2-------------||
|-2-2-2-2---------|-2--------------|-^2-----------|-----------2-----||
|-0-0-0-----------|-3--------------|-^3-----------|-0--------------o||
|-------0---------|-------3--------|--------3-----|-----------------||


  2.
  Am    E           C     G          C      G       Am
  E E E E S S S S   E E E E. S S S    E E E E E E   E S S S S Q.
|-------------0---|-----0----------|-^0-----------|-------0----------||
|-1-1-1-0---0---0-|-1-----3----3---|-^1-3-1-0-----|-----1---1--------||
|-2-2-2-1-1-------|-0-0---0--0---0-|-^0-------2-0-|---2--------------||
|-2-2-2-2---------|-2--------------|-^2-----------|-----------2------||
|-0-0-0-----------|-3--------------|-^3-----------|-0----------------||
|-------0---------|-------3--------|--------3-----|------------------||
|
| Gtr II
| W                 W                 W             E E   E   E  E E
|-----------------|----------------|--------------|------------------||
|-----------------|----------------|--------------|-------0---1--3-5-||
|-----------------|----------------|--------------|---2--------------||
|-----------------|----------------|--------------|------------------||
|-----------------|----------------|--------------|------------------||
|-----------------|----------------|--------------|------------------||


 Chorus
  Dm                         Em7b9/Bb
  S  S S S S S S S S S S S    S  S S S S S S S S S S S
|--------1-----1-------1---|---------0-----0-------0---|
|------3---3-----3---3---3-|-------3---3-----3---3---3-|
|----2-------2-----2-------|-----0-------0-----0-------|
|-0------------------------|---------------------------|
|--------------------------|--1------------------------|
|--------------------------|---------------------------|
|
| Gtr II
| H.                         +E    E   E   E   E   E
|--------------------------|---------------------------|
|-6------------------------|-(6)---------------3---6---|
|--------------------------|-------0---2---3-----------|
|--------------------------|---------------------------|
|--------------------------|---------------------------|
|--------------------------|---------------------------|


  C                          Am
  S  S S S S S S S S S S S    S  S S S S S S S S S S S
|--------0-----0-------0---|---------0-----0-------0------|
|------1---1-----1---1---1-|-------1---1-----1---1---1----|
|----0-------0-----0-------|-----2-------2-----2----------|
|--------------------------|------------------------------|
|-3------------------------|--0---------------------------|
|--------------------------|------------------------------|
|
| H.                         +E    E   E   E   E   E
|--------------------------|------------------------------|
|-5------------------------|-(5)-------0---1---5---8------|
|--------------------------|-------2----------------------|
|--------------------------|------------------------------|
|--------------------------|------------------------------|
|--------------------------|------------------------------|


  Dm                         Em7b9/Bb
  S  S S S S S S S S S S S    S  S S S S S S S S S S S
|--------1-----1-------1---|---------0-----0-------0---|
|------3---3-----3---3---3-|-------3---3-----3---3---3-|
|----2-------2-----2-------|-----0-------0-----0-------|
|-0------------------------|---------------------------|
|--------------------------|--1------------------------|
|--------------------------|---------------------------|
|
| H.                         +E    E   E   Q       S S
|--------------------------|-------1---3---5-------3-1-|
|-6------------------------|-(6)-----------------------|
|--------------------------|---------------------------|
|--------------------------|---------------------------|
|--------------------------|---------------------------|
|--------------------------|---------------------------|


  C
  S  S S S S S S S S S S S   H.
|--------0-----0-------0---|-0-----||
|------1---1-----1---1---1-|-------||
|----0-------0-----0-------|-------||
|--------------------------|-------||
|-3------------------------|-------||
|--------------------------|-------||
|
| H.                         W
|--------------------------|-------||
|-5------------------------|-------||
|--------------------------|-------||
|--------------------------|-------||
|--------------------------|-------||
|--------------------------|-------||


 Out-Chorus
  Dm                                           Em7b9/Bb
   S  S S S S S  S  S S S S S    S S  S S  S S  S S S S  S S
|---------1------1----1-------|-------1---------------0------|
|-------3---3-------3---3-----|----3----3----3------3----3---|
|-----2-------2-----------2---|--2---------2------0--------0-|
|--0------------------------0-|------------------------------|
|-----------------------------|-----------------1------------|
|-----------------------------|------------------------------|
|
| Gtr II
|  E.     S S S  E.     S S S    E    E    E    Q        E
|-----------------------------|------10---12---13------------|
|-10------8-6-8-10------8-6-8-|-10---10---13---15-------10---|
|-10------9-7-9-10------9-7-9-|-10----------------------10---|
|-----------------------------|------------------------------|
|-----------------------------|------------------------------|
|-----------------------------|------------------------------|


  Cadd9                                        N.C.
                              3/8             6/8
  S  S S  S S S S  S S S S S   S  S S S  S S    E  E    E E E E
|---------0-----0----0-------|------0--------|---------------------||
|------3----3------3---3---3-|----3---3----3-|---------------------||
|----0--------0----------0---|-0---------0---|---------------------||
|----------------------------|---------------|--3--2tr3-2----------||
|-3--------------------------|---------------|------------3-2------||
|----------------------------|---------------|----------------3----||
|
|                                               >
| E.      S S S E.     S S S   E    E    E      H.
|----------------------------|------8---10---|-12------------------||
|-8------10-8-6-8------6-5---|---------------|---------------------||
|-9------10-9-7-9------7-5-7-|-5-------------|--5------------------||
|--------------------------7-|-7-------------|--7------------------||
|----------------------------|---------------|---------------------||
|----------------------------|---------------|---------------------||
                               Q.               H.


 Guitar Solo
  Am         E             C            G
  Gtr III
  E  S S S S E    E  S S   S  S S S S S S S +Q
|-------------------^5-8-|-7--5------------------|
|-------------------^5---|------8-6-5------------|
|----4-5-7-5-4tr5---^5---|------------5-5h7-(7)--|
|-----------------6------|-----------------------|
|------------------------|-----------------------|
|------------------------|-----------------------|
|
| Gtr I
| E  E   E   Q.            E    E   E   Q.
|------------------------|----------0------------|
|-1--1---1---0-----------|-1----3-------3--------|
|-2--2---2---1-----------|-0------------0--------|
|-2--2---2---2-----------|-----------------------|
|-0--0---0---------------|-3---------------------|
|------------0-----------|--------------3--------|
|
| Gtr II
| Q.         Q.            Q.           Q.
|------------------------|-----------------------|
|------------------------|-----------------------|
|------------------------|-----------------------|
|------------------------|-----------------------|
|-3----------2-----------|-3------------5--------|
|------------------------|-----------------------|


  C            G          Am
  +E  S S  S S Q      E   S  S  +E     E    Q.
|-----7-8-10-8-7tr8-----|----------------------------------|
|---------------------8-|-8S10-(10)---10---10--------------|
|-(7)-------------------|----------------------------------|
|-----------------------|----------------------------------|
|-----------------------|----------------------------------|
|-----------------------|----------------------------------|
|
|  E  E    E   E    E E   E      S  S  S S  S  S S S S S
|-^0--------------------|--------------0-------------------|
|-^1--3----1---0--------|-----------1----1-----1---1---1---|
|-^0----------------2-0-|--------2-------------------------|
|-^2--------------------|-------------------3----0---2-----|
|-^3--------------------|-0--------------------------------|
|--------------3--------|----------------------------------|
|
|  Q.          Q.         H.
|-----------------------|----------------------------------|
|-----------------------|----------------------------------|
|-----------------------|----------------------------------|
|--2-----------0--------|----------------------------------|
|-----------------------|-0--------------------------------|
|-----------------------|----------------------------------|


  Am           E             C            G
  S S +E   S S Q       S S   S  S S S S S S S +Q
|-7h8-(8)-10-8-7-----------|----------------------------|
|---------------------10-8-|-6--------------------------|
|--------------------------|----9-7-5-------------------|
|--------------------------|----------9-7-7h9-(9)-------|
|--------------------------|----------------------------|
|--------------------------|----------------------------|
|
| E    E   E   E  S S  S S   E    E   E   E.      S S S
|----------------------0---|----------0-----------------|
|-1----1---1---0----0----0-|-1------------3---------3---|
|-2----2---2---1--1--------|-0----0-------0-------0---0-|
|-2----2---2---2-----------|-2--------------------------|
|-0----0---0---------------|-3--------------------------|
|--------------0-----------|--------------3-------------|
|
| Q.           Q.            Q.           Q.
|--------------------------|-5------------3-------------|
|-1------------5-----------|-6------------3-------------|
|-2------------4-----------|----------------------------|
|--------------------------|----------------------------|
|-3------------2-----------|-3------------5-------------|
|--------------------------|----------------------------|
  Q.           Q.            Q.           Q.


  C           G               Am
   E  S S S S  Q       E       S S +H            E
|---------------------------|-----------------------||
|---------------------------|-----------------------||
|-----4-5-7-5--4tr5---------|-----------------------||
|----------------------5----|--5h7-(7)--------------||
|---------------------------|-----------------------||
|---------------------------|-----------------------||
|
|  E  E   E    E    E  E       E    S  S S S Q.
|-^0------------------------|------------0----------||
|-^1--3---1----0------------|----------1---1--------||
|-^0----------------2--0----|-------2---------------||
|-^2------------------------|----------------2------||
|-^3------------------------|--0--------------------||
|--------------3------------|-----------------------||
|
|                              >
|  E  E   E    Q       S  S    H.
|-----5---8---10------12p10h|=12--------------------||
|---------------------------|-----------------------||
|---------------------------|-----------------------||
|--------------0------------|-----------------------||
|--7------------------------|--0--------------------||
|---------------------------|-----------------------||
   Q.          Q.


 2nd Verse
  Am    E           C     G          C      C       Am
  Gtr I
  E E E E S S S S   E E E E. S S S    E E E E E E    E  S S  S S  S S S S  S S
|-------------0---|-----0----------|-^0-----------|----------0-----------------|
|-1-1-1-0---0---0-|-1-----3----3---|-^1-3-1-0-----|-------1----1----1---1----1-|
|-2-2-2-1-1-------|-0-0---0--0---0-|-^0-------2-0-|-----2----------------------|
|-2-2-2-2---------|-2--------------|-^2-----------|---------------3---0----2---|
|-0-0-0-----------|-3--------------|-^3-----------|--0-------------------------|
|-------0---------|-------3--------|--------3-----|----------------------------|
|
| Gtr II
| W                 W                 W              E  E    E    Q        E
|-----------------|----------------|--------------|--------------19-------17---|
|-----------------|----------------|--------------|----12---13-----------------|
|-----------------|----------------|--------------|-14-------------------------|
|-----------------|----------------|--------------|----------------------------|
|-----------------|----------------|--------------|----------------------------|
|-----------------|----------------|--------------|----------------------------|


  Am      E           C     G          C      G       Am
   E  E E E S S S S   E E E E. S S S    E E E E E E   E S S S S Q.
|---------------0---|-----0----------|-^0-----------|-------0----------||
|--1--1-1-0---0---0-|-1-----3----3---|-^1-3-1-0-----|-----1---1--------||
|--2--2-2-1-1-------|-0-0---0--0---0-|-^0-------2-0-|---2--------------||
|--2--2-2-2---------|-2--------------|-^2-----------|-----------2------||
|--0--0-0-----------|-3--------------|-^3-----------|-0----------------||
|---------0---------|-------3--------|--------3-----|------------------||
|
|  >
|  ~~~
|  H.                 W                 W             E E   E   E  E E
|-12----------------|----------------|--------------|------------------||
|-------------------|----------------|--------------|---5---5------5-5-||
|-------------------|----------------|--------------|---2---2------2-2-||
|-------------------|----------------|--------------|------------------||
|-------------------|----------------|--------------|------------------||
|-------------------|----------------|--------------|------------------||


 Chorus
  Dm                          Em7b9/Bb
  S S S S S S S S  S  S S S   S S S S S S S S  S  S S S
|-------1-----1---------1---|-------0-----0---------0---|
|-----3---3-----3-----3---3-|-----3---3-----3-----3---3-|
|---2-------2------2--------|---0-------0------0--------|
|-0-------------------------|---------------------------|
|---------------------------|-1-------------------------|
|---------------------------|---------------------------|
|
| E   E   E   E    E    E     E   E   E   E    E    E
|---------------------------|---------------------------|
|-----6---6--------6----6---|-----3---3--------3----3---|
|-----7---7--------7----7---|-----0---0--------0----0---|
|---------------------------|-----8---7---5---(5)---3---|
|-5---------------(5)---7---|-8-------------------------|
|---------------------------|---------------------------|
  H               +E    E     E   E   E   E   +E    E


  C                          Am
  S  S S S S S S S S S S S   S  S S S S S S S S S S S
|--------0-----0-------0---|--------0-----0-------0------|
|------1---1-----1---1---1-|------1---1-----1---1---1----|
|----0-------0-----0-------|----2-------2-----2----------|
|--------------------------|-----------------------------|
|-3------------------------|-0---------------------------|
|--------------------------|-----------------------------|
|
| E    E   E   E   E   E     E    E   E   E   E   E
|------0---0-------0---0---|-----------------------------|
|------1---1-------1---1---|------1---1-------1---1------|
|--------------------------|------2---2-------2---2------|
|-2------------------------|-2------------3-------2------|
|--------------------------|-----------------------------|
|--------------------------|-----------------------------|
  H.                         Q.           Q       E


  Dm                        Em7b9/Bb
  S S S S S S S S S S S S   S S S S S S S S S S S S
|-------1-----1-------1---|-------0-----0-------0---|
|-----3---3-----3---3---3-|-----3---3-----3---3---3-|
|---2-------2-----2-------|---0-------0-----0-------|
|-0-----------------------|-------------------------|
|-------------------------|-1-----------------------|
|-------------------------|-------------------------|
|
| E   E   E   E   E   E     E   E   E   E   E   E
|-------------------------|-------------------------|
|-----6---6-------6---6---|-----3---3-------3---3---|
|-----7---7-------7---7---|-----0---0-------0---0---|
|-------------------------|-7---8---7---5-----------|
|-5---------------7---8---|---------------------8---|
|-------------------------|-------------------------|
  H               E   E     E   E   E   Q       E


  C
  S  S S S S S S S S S S S    H.
|--------0-----0-------0---|--0-----|
|------1---1-----1---1---1-|--------|
|----0-------0-----0-------|--------|
|--------------------------|--------|
|-3------------------------|--------|
|--------------------------|--------|
|
| E    E   E   E   E   E     +H.
|--------------------------|--------|
|------5---5-------5---5---|--------|
|------5---5-------5---5---|--------|
|-5------------------------|-(5)----|
|--------------------------|--------|
|--------------------------|--------|
  H.


  Dm                          Em7b9/Bb
  S  S S S S S S S S S  S S    S  S S S S S S S   S  S  S S
|--------1-----1--------1---|---------0-----0-----------0---|
|------3---3-----3---3----3-|-------3---3-----3------3----3-|
|----2-------2-----2--------|-----0-------0-------0---------|
|-0-------------------------|-------------------------------|
|---------------------------|--1----------------------------|
|---------------------------|-------------------------------|
|
| H                E    E      H.
|---------------------------|-13----------------------------|
|-6----------------8---10---|-15----------------------------|
|-7----------------9---10---|-------------------------------|
|---------------------------|-------------------------------|
|-5-------------------------|-13----------------(13)---12---|
|---------------------------|-------------------------------|
  H.                           H                 +E     E


  C                          Am
  S  S S S S S S S S S S S    S  S S S S S S S S S S S
|--------0-----0-------0---|---------0-----0-------0------|
|------1---1-----1---1---1-|-------1---1-----1---1---1----|
|----0-------0-----0-------|-----2-------2-----2----------|
|--------------------------|------------------------------|
|-3------------------------|--0---------------------------|
|--------------------------|------------------------------|
|
| H                E   E      H.
|--------------------------|-12---------------------------|
|-5----------------6---8---|-13---------------------------|
|-5----------------7---9---|------------------------------|
|-5------------------------|------------------------------|
|--------------------------|-12---------------------------|
|--------------------------|------------------------------|
  H.                          H.


  Dm                          Em7b9/Bb
  S  S S S S S S S S S  S S    S  S   S  S   S  S   S  S S S   S  S
|--------1-----1--------1---|------------0----------0----------0----|
|------3---3-----3---3----3-|---------3------3---------3---3------3-|
|----2-------2-----2--------|-----0-------------0--------0----------|
|-0-------------------------|---------------------------------------|
|---------------------------|--1------------------------------------|
|---------------------------|---------------------------------------|
|
| H                E    E      E      E      E      Q          E
|---------------------------|-13----(13)---(13)---(13)-------(13)---|
|-6----------------8---10---|-15----(15)---(15)---(15)-------(15)---|
|-7----------------9---10---|--------12-----14-----15---------14----|
|---------------------------|---------------------------------------|
|-5-------------------------|-13------------------------------------|
|---------------------------|---------------------------------------|
  H.                           H.


  C
   S  S S S S S S S S S S S            H.
|---------0-----0-------0---|----------0-----|
|-------1---1-----1---1---1-|----------------|
|-----0-------0-----0-------|----------------|
|---------------------------|----------------|
|--3------------------------|----------------|
|---------------------------|----------------|
|
|  H.                          a  a  a H.
|---------------------------|----------------|
|---------------------------|----------------|
|-12------------------------|-10h12-10p9-----|
|-14------------------------|----------------|
|---------------------------|----------------|
|---------------------------|----------------|
   H.


 Outro
  Dm                                           Em7b9/Bb
   S  S S S S S  S  S S S S S    S S  S S  S S  S S S S  S S
|---------1------1----1-------|-------1---------------0------|
|-------3---3-------3---3-----|----3----3----3------3----3---|
|-----2-------2-----------2---|--2---------2------0--------0-|
|--0------------------------0-|------------------------------|
|-----------------------------|-----------------1------------|
|-----------------------------|------------------------------|
|
|  E.     S S S  E.     S S S    E    E    E    Q        E
|-----------------------------|------10---12---13------------|
|-10------8-6-8-10------8-6-8-|-10---10---13---15-------10---|
|-10------9-7-9-10------9-7-9-|-10----------------------10---|
|-----------------------------|------------------------------|
|-----------------------------|------------------------------|
|-----------------------------|------------------------------|


  Cadd9
  S  S S  S S S S  S S S S S   S S S S  S S  S S  S  S S S
|---------0-----0----0-------|-0--------0------------0--------|
|------3----3------3---3---3-|---3---3----3-------3----3------|
|----0--------0----------0---|-----0-----------0---------0----|
|----------------------------|--------------------------------|
|-3--------------------------|---------------3----------------|
|----------------------------|--------------------------------|
|
| E.      S S S E.     S S S   E   E    E    Q         E
|----------------------------|-----8---10---12----------------|
|-8------10-8-6-8------6-5---|-------------------------8------|
|-9------10-9-7-9------7-5-7-|-5-----------------(5)---9------|
|--------------------------7-|-7-----------------(7)----------|
|----------------------------|--------------------------------|
|----------------------------|--------------------------------|
                               H                 +E    E


  Dm                                                Em7b9/Bb
   S  S S  S  S S  S  S S S S S    S  S  S  S  S  S  S S  S S  S  S
|----------1-------1----1-------|--------1------------------0-------|
|-------3-----3-------3---3-----|-----3-----3-----3-------3----3----|
|-----2---------2-----------2---|--2-----------2-------0----------0-|
|--0--------------------------0-|-----------------------------------|
|-------------------------------|--------------------1--------------|
|-------------------------------|-----------------------------------|
|
|  E.      S  S S  E.     S S S    S  S  S  S  S  S  E    E    S  S
|-------------------------------|--------8-10-12-15-13---12---------|
|-10------11-10-8-10------8-6-8-|-10-11-10-11-13-17-15---13---15-13-|
|-10------12-10-9-10------9-7-9-|-10-12-----------------------15-14-|
|-------------------------------|-----------------------------------|
|-------------------------------|-----------------------------------|
|-------------------------------|-----------------------------------|


  Cadd9
  S  S S  S S S S  S S S S S   S  S S S S S  S  S  S  S  S  S
|---------0-----0----0-------|-0--------0-------------0----------|
|------3----3------3---3---3-|----3---3---3--------3-----3-------|
|----0--------0----------0---|------0-----------0-----------0----|
|----------------------------|-----------------------------------|
|-3--------------------------|---------------3-------------------|
|----------------------------|-----------------------------------|
|
| E.      S S S E.     S S S   H.
|----------------------------|-----------------------------------|
|-8------10-8-6-8------6-5---|-----------------------------------|
|-9------10-9-7-9------7-5-7-|-5---------------------------------|
|--------------------------7-|-7---------------------------------|
|----------------------------|--------------15-17-15-------------|
|----------------------------|-----------------------18-17-15----|
                               Q.            S  S  S  S  S  S


  Dm                                                   Em7b9/Bb
   S  S S  S  S  S  S  S S  S  S  S     S  S  S S  S S  S S S S  S S
|----------1--------1----1----------|---------1---------------0------|
|-------3-----3--------3----3-------|------3----3----3------3----3---|
|-----2----------2-------------2----|---2----------2------0--------0-|
|--0------------------------------0-|--------------------------------|
|-----------------------------------|-------------------1------------|
|-----------------------------------|--------------------------------|
|
|  H.                                  +E     E    E    Q        E
|-17--------------------------------|-(17)---13---15---17-------18---|
|-18--------------------------------|-(18)---15---17---18-------20---|
|-----------------------------------|--------------------------------|
|-----------------------------------|--------------------------------|
|-----------------------------------|--------17---19---20------------|
|-17------15-13-15-17------15-13-15-|--17-----------------------17---|
   E.      S  S  S  E.      S  S  S     E     E    E    Q        E


  Cadd9
   S  S S  S  S  S  S  S S  S  S  S     S  S  S S  S S  S S S S  S S
|----------0--------0----0----------|---0----------0----------0---------|
|-------3-----3--------3----3-----3-|------3----3----3------3----3------|
|-----0----------0-------------0----|---------0-----------0--------0----|
|-----------------------------------|-----------------------------------|
|--3--------------------------------|-------------------3---------------|
|-----------------------------------|-----------------------------------|
|
|  H.                                  +E     E    E    Q        E
|-15--------------------------------|-(15)---12---13---15-------17------|
|-17--------------------------------|-(17)---13---15---17-------18------|
|-----------------------------------|-----------------------------------|
|-----------------------------------|-----------------------------------|
|-----------------------------------|--------15---17---19-------15------|
|-15------13-12-13-15------13-12-13-|--15-------------------------------|
   E.      S  S  S  E.      S  S  S     E     E    E    Q        E


  Dm                                                  Em7b9/Bb
   S  S S  S  S  S  S  S S  S  S  S     S  S S S  S S  S S S S  S S
|----------1--------1----1----------|--------1---------------0------|
|-------3-----3--------3----3-------|------3---3----3------3----3---|
|-----2----------2-------------2----|---2---------2------0--------0-|
|--0------------------------------0-|-------------------------------|
|-----------------------------------|------------------1------------|
|-----------------------------------|-------------------------------|
|
|  H.                                  +Q         E    Q        E
|-13--------------------------------|-(13)-------12-----------------|
|-15--------------------------------|-(15)-------13---15------------|
|-----------------------------------|-----------------15-------14---|
|-----------------------------------|--------------------------15---|
|-17------15-12-15-17------15-12-15-|--17--------10-----------------|
|-----------------------------------|-----------------15-------15---|
   E.      S  S  S  E.      S  S  S     Q         E    Q        E


  Cadd9                                           N.C.
                             3/8                 6/8
   S  S S S S S S S S S S S     S  S S  S  S  S    E   E      E  E  E  E
|---------0-----0---0-------|--------0----------|---------------------------|
|-------3---3-----3---3---3-|------3----3-----3-|---------------------------|
|-----0-------0---------0---|---0----------0----|---------------------------|
|---------------------------|-------------------|--3---2tr3---2-------------|
|--3------------------------|-------------------|----------------3--2-------|
|---------------------------|-------------------|----------------------3----|
|
|  H.                          +Q.                 E   E      E  E  E  E
|---------------------------|-------------------|-13--12tr13-12-------------|
|-13------------------------|-(13)--------------|---------------13-12-------|
|-14------------------------|-(14)--------------|---------------------12----|
|---------------------------|-------------------|---------------------------|
|---------------------------|-------------------|---------------------------|
|-15------------------------|-(15)-----13-12-13-|-15------------------------|
   H.                          +E.      S  S  S    H.


  Dm                                               Em7b9/Bb
   S  S S  S S  S  S  S S  S S  S    S S  S S  S S  S S S S  S S
|----------1-------1----1---------|-------1---------------0------|
|-------3----3--------3----3------|----3----3----3------3----3---|
|-----2---------2------------2----|--2---------2------0--------0-|
|--0----------------------------0-|------------------------------|
|---------------------------------|-----------------1------------|
|---------------------------------|------------------------------|
|
|  E.      S S  S  E.      S S  S    E    E    E    Q        E
|---------------------------------|------10---12---13------------|
|-10-------8-6--8-10-------8-6--8-|-10---10---13---15-------10---|
|-10-------9-7--9-10-------9-7--9-|-10----------------------10---|
|---------------------------------|------12---14---15------------|
|-12------10-8-10-12------10-8-10-|-12----------------------12---|
|---------------------------------|------------------------------|
   E.      S S  S  E.      S S  S    E    E    E    Q        E


  Cadd9
   S  S S  S  S S  S  S S  S  S S    S S  S S  S S  S  S  S  S  S  S
|----------0-------0----0---------|--0---------0-------------0----------|
|-------3-----3-------3----3----3-|----3----3----3--------3-----3-------|
|-----0---------0-------------0---|-------0------------0-----------0----|
|---------------------------------|-------------------------------------|
|--3------------------------------|-----------------3-------------------|
|---------------------------------|-------------------------------------|
|
|  E.      S  S S  E.      S  S S    E    E    E    S  S  S  S  S  S
|---------------------------------|-------8---10---12-10--8-------------|
|--8------10--8-6--8------10--8-6-|--8---10---11---13-11-10-11-10--8----|
|--9------10--9-7--9------10--9-7-|--9----------------------12-10--9----|
|---------------------------------|------10---12---14-12-10-------------|
|-10------12-10-8-10------12-10-8-|-10----------------------13-12-10----|
|---------------------------------|-------------------------------------|
   E.      S  S S  E.      S  S S    E    E    E    S  S  S  S  S  S


  Dm                                                 Em7b9/Bb
   S  S S  S S  S  S  S  S  S  S  S    S S  S S  S S  S S S S  S S
|----------1-------1-----1----------|-------1---------------0------|
|-------3----3--------3-----3-------|----3----3----3------3----3---|
|-----2---------2--------------2----|--2---------2------0--------0-|
|--0------------------------------0-|------------------------------|
|-----------------------------------|-----------------1------------|
|-----------------------------------|------------------------------|
|
|  E.      S S  S  S  S  S  S  S  S    E    E    E    Q        E
|-----------------------------------|------10---12---13------------|
|-10-------8-6--8-10-11-10--8--6--8-|-10---10---13---15-------10---|
|-10-------9-7--9-10-12-10--9--7--9-|-10----------------------10---|
|-----------------------------------|------10---12---14------------|
|-12------10-8-10-12-13-12-10-------|-------------------------12---|
|-----------------------------13-12-|-10---------------------------|
   E.      S S  S  S  S  S  S  S  S    E    E    E    Q        E


  Cadd9
   S  S S  S  S S  S  S S  S  S S    S  S S  S  S  S  S  S  S  S  S  S
|----------0-------0----0---------|--0----------0--------------0----------|
|-------3-----3-------3----3----3-|-----3----3-----3--------3-----3-------|
|-----0---------0-------------0---|-------0--------------0-----------0----|
|---------------------------------|---------------------------------------|
|--3------------------------------|-------------------3-------------------|
|---------------------------------|---------------------------------------|
|
|  E.      S  S S  E.      S  S S    S  S S  S  S  S  S  S  S  S  S  S
|---------------------------------|-------6--8-10-12-13-15-17-18-20-24----|
|--8------10--8-6--8------10--8-6-|--8-10-8-10-11-13-15-17-18-20-22-25----|
|--9------10--9-7--9------10--9-7-|--9-10---------------------------21----|
|---------------------------------|-------8-10-12-14-15-17-19-20-22-------|
|-10------12-10-8-10------12-10-8-|-10-12---------------------------------|
|---------------------------------|---------------------------------------|
   E.      S  S S  E.      S  S S    S  S S  S  S  S  S  S  S  S  S  S


  Dm                                         Em7b9/Bb
   S  S S S S S S S S S S S     S  S S S S S S S   S  S  S  S
|---------1-----1---1-------|--------1----------------0-------|
|-------3---3-----3---3-----|------3---3---3-------3-----3----|
|-----2-------2---------2---|---2--------2-----0------------0-|
|--0----------------------0-|---------------------------------|
|---------------------------|----------------1----------------|
|---------------------------|---------------------------------|
|
|  H.                          +H                 +E     S  S
|-22------------------------|-(22)---------------(22)---20-24-|
|-23------------------------|---------------------------------|
|-19------------------------|-(19)----------------------------|
|---------------------------|---------------------------------|
|---------------------------|---------------------------------|
|---------------------------|---------------------------------|
   H.                          +H.


  Cadd9
    S  S S S S S S S S S S S     S  S S S S S S S   S  S  S    S
|----------0-----0---0-------|---0--------0------------0-------------|
|--------3---3-----3---3---3-|------3---3---3-------3-----3----------|
|------0-------0---------0---|--------0---------0--------------0-----|
|----------------------------|---------------------------------------|
|---3------------------------|----------------3----------------------|
|----------------------------|---------------------------------------|
|
|                                                   |     |---3---|
|   H.                          +H                 +E.    S  S    S
|--22------------------------|-(22)---------------(22)---24-25---24--|
|----------------------------|---------------------------------------|
|-(19)-----------------------|-(19)----------------------------------|
|----------------------------|---------------------------------------|
|----------------------------|---------------------------------------|
|----------------------------|---------------------------------------|
   +H.                          +H.


  Dm                                          Em7b9/Bb
    S  S S S S S S S S S S S     S  S S S S S S S S S S S
|----------1-----1---1-------|--------1-------------0-----|
|--------3---3-----3---3-----|------3---3---3-----3---3---|
|------2-------2---------2---|---2--------2-----0-------0-|
|---0----------------------0-|----------------------------|
|----------------------------|----------------1-----------|
|----------------------------|----------------------------|
|
|   >
|   H.                          +H.
|--22------------------------|-(22)-----------------------|
|----------------------------|----------------------------|
|-(19)-----------------------|-(19)-----------------------|
|----------------------------|----------------------------|
|----------------------------|----------------------------|
|----------------------------|----------------------------|
   +H.                          +H.


  Cadd9                                         N.C.
                              3/8              6/8
    S  S S S S S S S S S S S     S  S S S S S     E  E    E E E E
|----------0-----0---0-------|--------0-------|----------------------*|
|--------3---3-----3---3---3-|------3---3---3-|----------------------*|
|------0-------0---------0---|---0--------0---|----------------------*|
|----------------------------|----------------|---3--2tr3-2----------*|
|---3------------------------|----------------|-------------3-2------*|
|----------------------------|----------------|-----------------3----*|
|
|  +H.                          +Q.              +H.
|-(22)-----------------------|-(22)-----------|-(22)-----------------*|
|----------------------------|----------------|----------------------*|
|-(19)-----------------------|-(19)-----------|-(19)-----------------*|
|----------------------------|----------------|----------------------*|
|----------------------------|----------------|----------------------*|
|----------------------------|----------------|----------------------*|
   +H.                          +Q.              +H.



Duration Legend
---------------
W - whole; H - half; Q - quarter; E - 8th; S - 16th; T - 32nd; X - 64th; a - acciaccatura
+ - note tied to previous; . - note dotted; .. - note double dotted
Uncapitalized letters represent notes that are staccato (1/2 duration)
Irregular groupings are notated above the duration line
Duration letters will always appear directly above the note/fret number it represents the
duration for.  Duration letters with no fret number below them represent rests.  Multi-
bar rests are notated in the form Wxn, where n is the number of bars to rest for.  Low
melody durations appear below the staff

Tablature Legend
----------------
 h   - hammer-on
 p   - pull-off
 b   - bend
 pb  - pre-bend
 r   - bend release (if no number after the r, then release immediately)
 /\  - slide into or out of (from/to "nowhere")
 s   - legato slide
 S   - shift slide
 - natural harmonic
[n]  - artificial harmonic
n(n) - tapped harmonic
 ~   - vibrato
 tr  - trill
 T   - tap
 TP  - trem. picking
 PM  - palm muting
\n/  - tremolo bar dip; n = amount to dip
 \n  - tremolo bar down
 n/  - tremolo bar up
/n\  - tremolo bar inverted dip
 =   - hold bend; also acts as connecting device for hammers/pulls
 <> - volume swell (louder/softer)
 x   - on rhythm slash represents muted slash
 o   - on rhythm slash represents single note slash

Misc Legend
-----------
 |  - bar
||  - double bar
||o - repeat start
o|| - repeat end
*|  - double bar (ending)
 :  - bar (freetime)
 $  - Segno
 &  - Coda
Tempo markers -  = BPM(8/16=s8/s16), where s8 = swing 8ths, s16 = swing 16ths





Comments


Popular Kamelot tabs & chords
Anthem Chords
Can You Remember Chords
Love You To Death Chords
Elizabeth Ii Requiem For The Innocent Intro Tabs
Forever Intro 1 Tabs
Haunting Somewhere In Time Tabs
Siege (Intro Ver 2) Tabs
Siege (Intro) Tabs
The Fourth Legacy Tabs
Wings Of Despair Tabs


Song lyrics



↑ Back to top | Tablatures and chords are parodies/interpretations of the original songs. You may use it for private study, scholarship, research or language learning purposes only
© 2014 AZChords.com Contact us | Privacy policy | DMCA | Add/correct tabs | Request tabs | Top 50 tabs