>
 >
Forever Intro 1

Forever Intro 1 Guitar Tabs

Kamelot - Forever Intro 1 chords, tabs, tablatures, lyrics

Guitar lessons | Add/correct | Request | Top 50 tabs Artists:  A B C D E F G H I J K L M N O P Q R S T U V W X Y Z 0-9

Forever Intro 1 Guitar Tabs – Kamelot

CD, Sheet music, Poster

Do you like Forever Intro 1? Share with your friends now
Tabs
FOREVER

Tuning: Standart

/    = Slide
H.A. = Artificial Harmonic
h    = Hammer-on
p    = Pull-off
~    = Vibrato
P.M  = Palm Mute




Guitar 1
e|-----------6-7-7-6-6--------------------------|-----------6-7-7-6-6--------------------|
B|-----6-7-9-----------7----6-7-7-6-6-----------|-----6-7-9-----------7---6-7-7-6-6------|
G|-/8--------------------8------------6-------6-|-/8--------------------8-----------6----|
D|--------------------------------------8-6-8---|-------------------------------------8~-|
A|----------------------------------------------|----------------------------------------|
E|----------------------------------------------|----------------------------------------|
Guitar 2
e|----------------------------------------------|----------------------------------------|
B|----------------------------------------------|----------------------------------------|
G|--8------6-------2-----2------6---------------|--8------6-------2-----2-----6-----XX8~-|
D|--8------6-------4-----4------6-------4-----3-|--8------6-------4-----4-----4-----XX8~-|
A|--6------4-------4-----4------4-------4-----3-|--6------4-------4-----4-----4-----XX6~-|
E|--------------------------------------2-----1-|----------------------------------------|

(0:17)
Guitar 1                                          H.A.
e|------------------------6-7-6h7p6---------11h13-(14)-13p11----------|
B|----6-7-6h7p6-------7-9-----------96-7-------------------14-12-11---|
G|--6-----------8---8-------------------------------------------------|
D|--------------------------------------------------------------------|
A|--------------------------------------------------------------------|
E|--------------------------------------------------------------------|
Guitar 2
e|--------------------------------------------------------------------|
B|--------------------------------------------------------------------|
G|--------XX4~---------------XX6~----------------XX3~~----------------|
D|--------XX4~---------------XX6~----------------XX3~~----------------|
A|--------XX2~---------------XX4~----------------XX1~~----------------|
E|--------------------------------------------------------------------|

(0:22)
Guitar 1
e|----------6-7-7-6-6---11-13-14-14-13-13----11-|-----------------------------------------|
B|----6-7-9-----------7-------------------14----|-----------------------------------------|
G|-/8-------------------------------------------|-----------------------------------------|
D|----------------------------------------------|-----------------------------------------|
A|----------------------------------------------|-----------------------------------------|
E|----------------------------------------------|-----------------------------------------|
Guitar 2
e|----------------------------------------------|-----------------------------------------|
B|----------------------------------------------|-----------------------------------------|
G|--------------------------6~------------------|-----------------------------------------|
D|--------------------------6~------------------|-----------------------------------------|
A|--66666444442222222222222-4~------------------|-666666666666666666666666666666666666666-|
E|----------------------------------------------|-----------------------------------------|
    |--------p.m.---------|                       |-----------------p.m.----------------|
(0:30)                                        
Guitar 1
e|----------------------------------------------|-----------------------------------------|
B|----------------------------------------------|-----------------------------------------|
G|----------------------------------------------|--15-16-15-13-13/15--11-13-10------------|
D|----------------------------------------------|--13-14-13-11-11/13--9--11-8--11--11/13--|
A|----------------------------------------------|--13-14-13-11-11/13--9--11-8--11--11/13--|
E|----------------------------------------------|-------------------------------9---9/11--|

Guitar 2
e|----------------------------------------------|-----------------------------------------|
B|----------------------------------------------|-----------------------------------------|
G|----------------------------------------------|-----------------------------------------|
D|----------------------------------------------|-----------(fast picking)----------------|
A|--6666666666666666666666666666666666666666666-|--66666666666666666666666666666666666666-|
E|----------------------------------------------|-----------------------------------------|
    |-------------------p.m.------------------|    |----------------p.m.----------------|
End Intro





Comments


Popular Kamelot tabs & chords
The Fourth Legacy Bass Tabs
Haunting Somewhere In Time Chords
A Feast For The Vain Intro Tabs
Mourning Star Tabs
The Fourth Legacy 1 Tabs
The Great Pandemonium Tabs
A Sailormans Hymn Ukulele
Anthem Ukulele
Can You Remember Ukulele
Temples Of Gold Ukulele


Song lyrics



↑ Back to top | Tablatures and chords are parodies/interpretations of the original songs. You may use it for private study, scholarship, research or language learning purposes only
© 2014 AZChords.com Contact us | Privacy policy | DMCA | Add/correct tabs | Request tabs | Top 50 tabs