>
 >
Forever 1

Forever 1 Guitar Tabs

Kamelot - Forever 1 chords, tabs, tablatures, lyrics

Guitar lessons | Add/correct | Request | Top 50 tabs Artists:  A B C D E F G H I J K L M N O P Q R S T U V W X Y Z 0-9

Forever 1 Guitar Tabs – Kamelot

CD, Sheet music, Poster

Do you like Forever 1? Share with your friends now
TabsTabs v2Tabs v3Tabs v4
This is my version of the song, although i had difficulty transcribing the solos, but 
give you this general idea.

Tune one-half step down

Intro
Eb--------------------------------------------------------------------------------------|
Bb-------------------10-----12--13--13--12--12------------------------------------------|
Gb-9-----11--12--------------------------------------12--9-----11--12--12---------------|
Db--------------------------------------------------------------------------------------|
Ab--------------------------------------------------------------------------------------|
Eb--------------------------------------------------------------------------------------|


Eb--------------------------------------------------------------------------------------|
Bb--------------------------------------------------------------------------------------|
Gb--11--11------------------------------------------------------------------------------|
Db--------------12--9-----------9--12---------------------------------------------------|
Ab----------------------------12--------------------------------------------------------|
Eb--------------------------------------------------------------------------------------|


Eb--------------------------------------------------------------------------------------|
Bb--------------------10----12--13--13--12--12------------------------------------------|
Gb--9-----11--12-------------------------------------12--9-----11--12--12---------------|
Db--------------------------------------------------------------------------------------|
Ab--------------------------------------------------------------------------------------|
Eb--------------------------------------------------------------------------------------|


Eb--------------------------------------------------------------------------------------|
Bb-----------------------------------------------------12h13p12--10--10h12--------------|
Gb--11--11----------------------9--11--12--11-------------------------------------------|
Db-------------12--9--9--9--------------------------------------------------------------|
Ab--------------------------------------------------------------------------------------|
Eb--------------------------------------------------------------------------------------|

Eb-14--12--10---------------------------------------------------------------------------|
Bb-----------------13--12-----10--------------------------------------------------------|
Gb--------------------------------------------------------------------------------------|
Db--------------------------------------------------------------------------------------|
Ab--------------------------------------------------------------------------------------|
Eb--------------------------------------------------------------------------------------|

Eb-------------------------------------------------------------12-----14--15--15--------|
Bb-------------------10-----12--13--13--12--12------------------------------------------|
Gb--9----11--12--------------------------------------12---------------------------------|
Db--------------------------------------------------------------------------------------|
Ab--------------------------------------------------------------------------------------|
Eb--------------------------------------------------------------------------------------|

Eb--14--14--10--12~---------------------------------------------------------------------|
Bb--------------------------------------------------------------------------------------|
Gb--------------------------------------------------------------------------------------|
Db--------------------------------------------------------------------------------------|
Ab--------------------------------------------------------------------------------------|
Eb----------------------0----0----0----0----0----0----0----0----0----0----0-------------|

Riff A
Eb--------------------------------------------------------------------------------------|
Bb--------------------------------------------------------------------------------------|
Gb--------------------------------------------------------------------------------------|
Db-----16----17----16----14----14/16------12---14----11----7----7/9---------------------|
Ab-----14----15----14----12----12/14------10---12-----9-----5----5/7--------------------|
Eb--0-0-0-0-0-0-0-0-0-0-0-0-0-0-0-0-0-0-0-0-0-0-0-0-0-0-0-0-0-0-------------------------|

Verse 1
Eb------------------------------------------------------------------------------------|
Bb------------------------------------------------------------------------------------|
Gb------------------------------------------------------------------------------------|
Db------------------------------------------------------------------------------------|
Ab------------------------------------------------------------------------------------|
Eb------------------------------------------------------------------------------------|

Eb--------------------------------------------------------------------------------------|
Bb--------------------------------------------------------------------------------------|
Gb--------------------------------------------------------------------------------------|
Db--------------------------------------------------------------------------------------|
Ab--------------------------------------------------------------------------------------|
Eb--0-0-0-0-0---0---0---0-----------------0-0-0-0-0---0---0---0-------------------------|


Eb--------------------------------------------------------------------------------------|
Bb--------------------------------------------------------------------------------------|
Gb--------------------------------------------------------------------------------------|
Db--------------------------------------------------------------------------------------|
Ab--------------------------------------------------------------------------------------|
Eb--0-0-0-0-0---0---0---0----------------0-0-0-0-0---0---0---0--------------------------|

PreChorus
Eb-------------------------------------------------------------------------------|
Bb-------------------------------------------------------------------------------|
Gb--5------5---7--------7---4-------4---5------------------------7-------7----7--|
Db--5------5---7--------7---4-------4---5------------------------7-------7----7--|
Ab--3------3---5--------5---2-------2---3-3-3-3-3-3-3-3--5-5-5-5-5-5-5-5---------|
Eb-------------------------------------------------------------------------------|

Chorus
Eb--------------------------------------------------------------------------------------|
Bb--------------------------------------------------------------------------------------|
Gb--9---------7---------5---------(5)--------7---------4--------7-----------------------|
Db--9---------7---------5---------(5)--------7---------4--------7-----------------------|
Ab--7---------5---------3---------(3)--------5---------2--------5-----------------------|
Eb--------------------------------------------------------------------------------------|
                                                                             x
Eb--------------------------------------------------------------------------------------|
Bb--------------------------------------------------------------------------------------|
Gb--9---------7---------5---------5----------7----------9------5------7-----4-----------|
Db--9---------7---------5---------5----------7----------9------5------7-----4-----------|
Ab--7-7-7-7-5-5-5-5-3-3-3-3-3-3-3-3-5-5-5-5--7------3------5-----2----------------------|
Eb--------------------------------------------------------------------------------------|

Verse2
Eb--------------------------------------------------------------------------------------|
Bb--------------------------------------------------------------------------------------|
Gb--------------------------------------------------------------------------------------|
Db--------------------------------------------------------------------------------------|
Ab--------------------------------------------------------------------------------------|
Eb--0-0-0-0-0---0---0---0----------0-0-0-0-0---0---0---0--------------------------------|

Eb--------------------------------------------------------------------------------------|
Bb--------------------------------------------------------------------------------------|
Gb--------------------------------------------------------------------------------------|
Db--------------------------------------------------------------------------------------|
Ab--------------------------------------------------------------------------------------|
Eb--0-0-0-0-0---0---0---0-----------0-0-0-0-0----0---0---0------------------------------|


Eb--------------------------------------------------------------------------------------|
Bb--------------------------------------------------------------------------------------|
Gb--------------------------------------------------------------------------------------|
Db--------------------------------5-5---------------------------------------------------|
Ab--7-7-7-7-7-7-7-7-7-7-7-------7-7-7-7-7-7-7-7-7-7-5-5---------------------------------|
Eb--------------------------------------------------------------------------------------|

*Play PreChorus and Chorus to x


Eb--------------------------------------------------------------------------------------|
Bb--------------------------------------------------------------------------------------|
Gb------9---9-----9-----9---------------------------------------------------------------|
Db------9---9-----9-----9---------------------------------------------------------------|
Ab------7---7-----7-----7---------------------------------------------------------------|
Eb--0----------0-----0-----0------0------0------0------0------0------0------0-----------|

Eb--------------------------------------------------------------------------------------|
Bb--------------------------------------------------------------------------------------|
Gb------9---9-----9-----9---------------------------------------------------------------|
Db------9---9-----9-----9---------------------------------------------------------------|
Ab------7---7-----7-----7---------------------------------------------------------------|
Eb--0----------0-----0-------0---0---0---0---0---0---0---0---0---0---0---0--------------|

Eb------------------------------------------------------------------------------------|
Bb------------------------------------------------------------------------------------|
Gb------------------------------------------------------------------------------------|
Db------------------------------------------------------------------------------------|
Ab------------------------------------------------------------------------------------|
Eb------------------------------------------------------------------------------------|

Solo Segment                                                                              x2
Eb--------------------------------------------------------------------------------------|
Bb--------------------------------------------------------------------------------------|
Gb--9----------------------------------7/9---7/9-------7/9----------7/9-----------------|
Db--9----------------------------------7/9---7/9-------7/9----------7/9-----------------|
Ab--7----------------------------------5/7---5/7-------5/7----------5/7-----------------|
Eb--0-----------------------------------------------------------------------------------|

This is the solo, i did my best

Eb--12----15----14--15--14--12---------------14--15--14--12-----------------------------|
Bb---------------------------------------15--12--------------------------15--12---------|
Gb--------------------------------------------------------------------------------------|
Db--------------------------------------------------------------------------------------|
Ab--------------------------------------------------------------------------------------|
Eb--------------------------------------------------------------------------------------|


Eb--------12~-------------------------------------------------------------------------|
Bb--15--------------------13-12-13-15---10-12-13--------------------------------------|
Gb-------------------------------------------------------------16-14-16---------------|
Db------------------------------------------------------------------------------------|
Ab------------------------------------------------------------------------------------|
Eb------------------------------------------------------------------------------------|

Eb----------------------------------------------------------|
Bb--------------------------------------------------10------|
Gb--11-12-14--------------------9--11--12-------------------|
Db-------------------9--11--12------------------------------|
Ab----------------------------------------------------------|
Eb----------------------------------------------------------|

Play Riff A with this:
Eb--------------------------------------------------------------------------------------|
Bb--12------10--------------------------------------------------------------------------|
Gb-----------------12------------11---9-------7/9---------------------------------------|
Db--------------------------------------------------------------------------------------|
Ab--------------------------------------------------------------------------------------|
Eb--------------------------------------------------------------------------------------|

PreChorus and Chorus, figure out the timing yourself, end on riff A.
Thanks, like i said i tried my best, this is my first tab so see ya!
                                                                          -Obscurum





Comments


Popular Kamelot tabs & chords
On The Coldest Winter Night Bass Tabs
Can You Remember Chords
Center Of The Universe Chords
Temples Of Gold Chords
A Sailorman's Hymn Tabs
Glory Tabs
Kamelots Glory Tabs
Karma Tabs
Soul Society Tabs
Song For Jolee Ukulele


Song lyrics



↑ Back to top | Tablatures and chords are parodies/interpretations of the original songs. You may use it for private study, scholarship, research or language learning purposes only
© 2014 AZChords.com Contact us | Privacy policy | DMCA | Add/correct tabs | Request tabs | Top 50 tabs