>
 >
Forever

Forever Guitar Tabs

Kamelot - Forever chords, tabs, tablatures, lyrics

Guitar lessons | Add/correct | Request | Top 50 tabs Artists:  A B C D E F G H I J K L M N O P Q R S T U V W X Y Z 0-9

Forever Guitar Tabs – Kamelot

CD, Sheet music, Poster

Do you like Forever? Share with your friends now
TabsTabs v2Tabs v3Tabs v4
Sorry guys, the last tab I put in I screwed up the solo scale/arpeggio part. My bad. 
is totaly right.


|---------------------------------------------------------------------|
|------------10--12-13-13-12-12---------------------------------------|
|---9--11-12--------------------12--9--11-12-12-11-11-----------------|
|------------------------------------------------------12-9------9-12-|
|-------------------------------------------------------------12------|
|---------------------------------------------------------------------|

|------------------------------------------------------------------------------------|
|------------10--12-13-13-12-12------------------------------------------------------|
|---9--11-12--------------------12--9--11-12-12-11-11----------------9-12-11h12p11-9-|
|------------------------------------------------------12-9-----9-12-----------------|
|------------------------------------------------------------------------------------|
|------------------------------------------------------------------------------------|


|----------------------------------------------------------------------------|
|----------12-13-12h13p12h13-10--------------------12h14h15p12---------------|
|----11-12-----------------------------------------------------12------------|
|------------------------------------------------------------------12—9^-----|
|----------------------------------------------------------------------------|
|----------------------------------------------------------------------------|


|------------------------------------12-14-15-15-14-14----------------------------|
|------------10--12-13-13-12-12------------------------15—17^---------------------|
|---9--11-12--------------------12------------------------------------------------|
|---------------------------------------------------------------------------------|
|---------------------------------------------------------------------------------|
|---------------------------------------------------------------------------------|


|-------------|
|-------------|
|-------------|             repeat as needed.
|-------------|            Continues through but as a studio obtained layer.
|-2-2-2-2-2-2-|
|-0-0-0-0-0-0-|

Keyboard/Guitar

|-----------------------------------|--------------------------------------|
|-----------------------------------|--------------------------------------|
|-----------------------------------|--------------------------------------|
|-----16------17-----14--14---14s16-|------12----14----11-----7------7s9---|
|-----14------15-----12--12---12s14-|------10----12-----9-----5------5s7---|
|-0-0-----0-0----0-0---0-0--0-0-----|--0-0----0-0---0-0----0-0---0-0-------|




*= beat 1234 1234… S/S= short note+ slide… x8= strum eight times (eighth notes)
.= 1234 beat… x= mute string x28= Strum 28 times/16th notes x4=strum 4 times/16th notes

g|------------------|    Play dununununun dununun     8 times
d|------------------|
a|-2-2-2-2-2-2-2----|
E|-0-0-0-0-0-0-0----|

                                   Do not repeat

|---------------*repeat--------------|-----|-----------------------|
|------------------------------------|-----|-----------------------|
|----*-s/s-*--s/s-*--x8-x8--.--.--*--.-|-----|---.--.--.--.--------|
|----5--5—-7--7--4--5--7--9--7--5--7-|-.--.|---9--5--7--4----------|
|----3--3--5--5--2--3--5--7--5--3--5-|-5--4|---7--3--5--2----------|
|----x--x--x--x--x--x--x--x--x--x--x-|-3--2|---x--x--x--x----------|


g|------------------|    Play dununununun dununun     8 times
d|------------------|
a|-2-2-2-2-2-2-2----|
E|-0-0-0-0-0-0-0----|

|-------------------|
|-------------------|
|-------------------|              4 times
|-------------------|
|-x28--x4--x28--x4--|
|--7---10--7---5----|

                                   Do not repeat

|---------------*repeat--------------|-----|--------------------|
|------------------------------------|-----|--------------------|
|----*-s/s-*-s/s-*-x8-x8--.--.--*--.-|-----|---.--.--.--.-------|
|----5--5—-7--7--4--5--7--9--7--5--7-|-.--.|---9--5--7--4-------|
|----3--3--5--5--2--3--5--7--5--3--5-|-5--4|---7--3--5--2-------|
|----x--x--x--x--x--x--x--x--x--x--x-|-3--2|---x--x--x--x-------|



T=trill

|--------------------------------------|
|--------------------------------------|
|--------------x8--------------8-------| beats
|--7-7--7-7-7--7---7-7--7-7-7--7-------|
|--9-9--9-9-9--9---9-9--9-9-9--9-------|
|--x-x--x-x-x--x---x-x--x-x-x--x-------|

|-----------------------------------------|
|-----------------------------------------|
|-----------------------------------------|
|-7s9--7s9--7s9--7s9--7s9--7s9--7s9--7s9--|
|-5s7--5s7--5s7--5s7--5s7--5s7--5s7--5s7--|
|-xsx--xsx--xsx--xsx--xsx--xsx--xsx--xsx--|


Solo!!!


e|--10s12-15-14-17-15-14--------14-17-15-14-14t15----------12-|
B|-----------------------15-12--------------------15-13-12----|


|---13p12-13p12-------------------------12--|
|---------------15-13-12h13p12--------------|
|-------------------------------12-11-------|
|-------------------------------------------|
|-------------------------------------------|
|-------------------------------------------|

|------------------------------------|
|---12-------------------------------|
|------11-12-11h12p11----11-------12-|
|---------------------14----14-12----|
|------------------------------------|
|------------------------------------|
There is two guitar parts here, one plays the first half and one plays the second
|----------------------------17-19------------------|
|----------------------16-19------------------------|
|-------------------17-------------s17-s14-12-11----|
|------------------------------------------------12-|
|--------12--15-------------------------------------|
|--11-14--------------------------------------------|

|------------------------------------|-----|----------------------------------|
|------------------------------------|-----|----------------------------------|
|----*-s/s-*-s/s-*-x8-x8--.--.--*--.-|-----|--x8--x8-x8-x8-----x8--x8-x8-x8---|
|----5--5—-7--7--4--5--7--9--7--5--7-|-.--.|---9--5--7--4------9--5--7--4-----|
|----3--3--5--5--2--3--5--7--5--3--5-|-5--4|---7--3--5--2------7--3--5--2-----|
|----x--x--x--x--x--x--x--x--x--x--x-|-3--2|---x--x--x--x------x--x--x--x-----|




|-----------------------------------|--------------------------------------|
|-----------------------------------|--------------------------------------|
|-----------------------------------|--------------------------------------|
|-----16------17-----14--14---14s16-|------12----14----11-----7------7s9---|
|-----14------15-----12--12---12s14-|------10----12-----9-----5------5s7---|
|-0-0-----0-0----0-0---0-0--0-0-----|--0-0----0-0---0-0----0-0---0-0-------|





Comments


Popular Kamelot tabs & chords
The Human Stain Bass Tabs
Song For Jolee Chords
The Haunting Chords
A Sailorman's Hymn Tabs
Center Of The Universe Tabs
Farewell Tabs
March Of Mephisto Tabs
Dont You Cry Ukulele
Temples Of Gold Ukulele
The Haunting Ukulele


Song lyrics



↑ Back to top | Tablatures and chords are parodies/interpretations of the original songs. You may use it for private study, scholarship, research or language learning purposes only
© 2014 AZChords.com Contact us | Privacy policy | DMCA | Add/correct tabs | Request tabs | Top 50 tabs