>
 >
Descent Of The Archangel

Descent Of The Archangel Guitar Tabs

Kamelot - Descent Of The Archangel chords, tabs, tablatures, lyrics

Guitar lessons | Add/correct | Request | Top 50 tabs Artists:  A B C D E F G H I J K L M N O P Q R S T U V W X Y Z 0-9

Descent Of The Archangel Guitar Tabs – Kamelot

CD, Sheet music, Poster

Do you like Descent Of The Archangel? Share with your friends now
Tabs
Descent of the Archangel 
Kamelot
Track number 8 from Epica (2003)
Tunning: 1/2 step down (EbAbDbGbBbeb)

This is the best Song of the amazing album (in my opinion) i love playing it, the licks sound very good 
on a strat guitar (just for you to know), also the solo does. You might feel the guitar a little weird
cause there area a lot of weir sounds a effect of the backing tracks of the song, i think must of the is 
OK, so enjoy the song.

Instrumantal Intro
(Flute & voice)
eb||-------------------------------||
Bb||--10---/.8---5--.5b(6)r5---3---||
Gb||-------------------------------||x?
Db||-------------------------------||
Ab||-------------------------------||
Eb||-------------------------------||

(Piano Backing)
eb||--17-17-15-----------------------||                                 eb||--17-17-15-------------------------||
Bb||-----------17-15-17-17-15-13-12--||                                 Bb||-----------17-15-17-17-15-13-12-10-||
Gb||---------------------------------|| x? Last Time -> Play like this  Gb||-----------------------------------||
Db||---------------------------------||                                 Db||-----------------------------------||
Ab||---------------------------------||                                 Ab||-----------------------------------||
Eb||---------------------------------||                                 Eb||-----------------------------------||
 

Khan screams "I will Claim my angelīs cry"

Guitar Intro (Very heavy and distorted)
eb||------------------------------------------------------------------||
Bb||------------------------------------------------------------------||
Gb||------------------------------------------------------------------|| x4
Db||------------------------------------------------------------------||
Ab||--77777---33333---55555---22222---55555---22222---33333---00000---||
Eb||------------------------------------------------------------------||

Verse 1
eb||--0-------------0--|---0h1-------1-----|--0-------------0--||
Bb||--1---0h1p0--------|---3-----2---------|--0----------0-----||
Gb||--2----------2-----|---2-------3-------|--1----------------||
Db||--2----------------|---0------------0--|--2----------------||
Ab||--0----------------|---0---------------|--2----------------||
Eb||-------------------|-------------------|--0----------------||

eb||--0----------0-----|---0h1-------0h1---|--0-------------0--||
Bb||--1---1p0------2---|---3------------3--|--0----------------||
Gb||--2--------2-------|---2-----2---------|--1--------0-------||
Db||--2----------------|---0---0-----------|--2----------------||
Ab||--0------------0---|---0---------------|--2----------------||
Eb||-------------------|-------------------|--0----------------||


Pre-Chorus
eb||------------------||
Bb||------------------||
Gb||--10---7---9--9---||
Db||--10---7---9--9---||
Ab||--8----5---7--7---||
Eb||-----------0------||

Chorus
eb||--------------------|----------------------------------||
Bb||--------------------|----------------------------------||
Gb||--2---------9---7---|--2-------9-----------------------|| x2
Db||--2---5-----9---7---|--2---5---9---777--555--333--222--||
Ab||--0---5-----7---5---|--0---5---7-----------------------||
Eb||------3-----0-------|------3---0-----------------------||

Verse 2
eb||--0-------------0--|---0h1-------1-----|--0-------------0--||
Bb||--1---0h1p0--------|---3-----2---------|--0----------0-----||
Gb||--2----------2-----|---2-------3-------|--1----------------||
Db||--2----------------|---0------------0--|--2----------------||
Ab||--0----------------|---0---------------|--2----------------||
Eb||-------------------|-------------------|--0----------------||

eb||--0----------0-----|---1--1-1-0---1-0--|--0-----------------||
Bb||--1--1-1-1---0-1---|---3--3-3-3---3-3--|--0--5-5-5---4--5---||
Gb||--2--2-2-2---2-2---|---2--2-2-2---2-2--|--1--4-4-4---4--4---||
Db||--2--2-2-2---2-2---|---0--0-0-0---0-0--|--2--2-2-2---2--2---||
Ab||--0--0-0-0---0-0---|---0---------------|--2--2-2-2---2--2---||
Eb||-------------------|-------------------|--0--0-0-0---0--0---||

Pre-Chorus
eb||-----------------------||
Bb||-----------------------||
Gb||--10---7---9--9-9-9-9--||
Db||--10---7---9--9-9-9-9--||
Ab||--8----5---7--7-7-7-7--||
Eb||-----------0-----------||

Chorus
eb||--------------------|----------------------------------||
Bb||--------------------|----------------------------------||
Gb||--2---------9---7---|--2-------9-----------------------|| x2
Db||--2---5-----9---7---|--2---5---9---777--555--333--222--||
Ab||--0---5-----7---5---|--0---5---7-----------------------||
Eb||------3-----0-------|------3---0-----------------------||

Pre-Solo (Orchestra)
eb||---------------------||
Bb||---------------------||
Gb||---------------------||
Db||--14/15--15p14--12---||
Ab||---------------------||
Eb||---------------------||

Guitar-Solo[no idea]
eb||-------------------------------------------||
Bb||-------------------------------------------||
Gb||-------------------------------------------||
Db||-------------------------------------------||
Ab||-------------------------------------------||
Eb||-------------------------------------------||

eb||-------------------------------------------||
Bb||-------------------------------------------||
Gb||-------------------------------------------||
Db||-------------------------------------------||
Ab||-------------------------------------------||
Eb||-------------------------------------------||

Bridge (NO GUITAR)
(Piano Backing)
eb||--17-17-15-----------------------||                                 eb||--17-17-15-------------------------||
Bb||-----------17-15-17-17-15-13-12--||                                 Bb||-----------17-15-17-17-15-13-12-10-||
Gb||---------------------------------|| x? Last Time -> Play like this  Gb||-----------------------------------||
Db||---------------------------------||                                 Db||-----------------------------------||
Ab||---------------------------------||                                 Ab||-----------------------------------||
Eb||---------------------------------||                                 Eb||-----------------------------------||

Pre-Chorus
eb||---------------||
Bb||---------------||
Gb||--10---7---9---||
Db||--10---7---9---||
Ab||--8----5---7---||
Eb||-----------0---||

Chorus
eb||--------------------|----------------------------------||
Bb||--------------------|----------------------------------||
Gb||--2---------9---7---|--2-------9-----------------------|| x4
Db||--2---5-----9---7---|--2---5---9---777--555--333--222--||
Ab||--0---5-----7---5---|--0---5---7-----------------------||
Eb||------3-----0-------|------3---0-----------------------||

Outro
eb||-------------------------------||    eb||---------------------------------||
Bb||--10---/.8---5--.5b(6)r5---3---||    Bb||--10---/.8---5--.5b(6)r5---3--1--||
Gb||-------------------------------|| x2 Gb||---------------------------------||
Db||-------------------------------||    Db||---------------------------------||
Ab||-------------------------------||    Ab||---------------------------------||
Eb||-------------------------------||    Eb||---------------------------------||





Comments


Popular Kamelot tabs & chords
Center Of The Universe Chords
Temples Of Gold Chords
A Sailormans Hymn 2 Tabs
Blucher Tabs
Center Of The Universe Tabs
Ghost Opera 1 Tabs
Karma Tabs
Siege (Intro Ver 2) Tabs
When The Lights Are Down Tabs
Dont You Cry Ukulele


Song lyrics



↑ Back to top | Tablatures and chords are parodies/interpretations of the original songs. You may use it for private study, scholarship, research or language learning purposes only
© 2014 AZChords.com Contact us | Privacy policy | DMCA | Add/correct tabs | Request tabs | Top 50 tabs