>
 >
Center Of The Universe

Center Of The Universe Guitar Tabs

Kamelot - Center Of The Universe chords, tabs, tablatures, lyrics

Guitar lessons | Add/correct | Request | Top 50 tabs Artists:  A B C D E F G H I J K L M N O P Q R S T U V W X Y Z 0-9

Center Of The Universe Guitar Tabs – Kamelot

CD, Sheet music, Poster

Do you like Center Of The Universe? Share with your friends now
Bass TabsChordsTabsUkulele
All guitars tuned one half step down.

Eb-----------------------------------------------------|x2
Bb-----------------------------------------------------|
Gb--9-------9----5-------5----9-------9----------------|
Db--9-------9----5-------5----9-------9----5---4-------|
Ab--7-7-7-7-7-7--3-3-3-3-3-3--7-7-7-7-7-7--3---2---5---|
Eb-------------------------------------------------3---|


Eb-------------------------------------------------|
Bb-------------------------------------------------|
Gb-14--16--14--16--14--17--16--17--19--19~---------|
Db-------------------------------------------------|
Ab-------------------------------------------------|
Eb-------------------------------------------------|

Eb-----------------------------------------12~-14-15-14-12-14-12--12--------|
Bb--------------------------------------------------------------15--15-14---|
Gb-12-14-16--14--16--14--17--14--12--16--12---------------------------------|
Db--------------------------------------------------------------------------|
Ab--------------------------------------------------------------------------|
Eb--------------------------------------------------------------------------|

Eb-------------------------------------------------|
Bb-------------------------------------------------|
Gb-16--17--16--17--16--17--16--17--19--19~---------|
Db-------------------------------------------------|
Ab-------------------------------------------------|
Eb-------------------------------------------------|

Eb-------------------------------------------|
Bb-------------------------------------------|
Gb--16--17--16--17--16--19--17--16--14--16~--|
Db-------------------------------------------|
Ab-------------------------------------------|
Eb-------------------------------------------|

Eb-----------------------------------------|
Bb-----------------------------------------|
Gb-14-12-11-9-12-11-9-7--------------------|
Db-----------------------------------------|
Ab-----------------------------------------|
Eb-----------------------------------------|

Verse:

Eb|--------------------------------|
Bb|--------------------------------|
Gb|o--9\---------------------------|
Db|o--9\---------------------------|
Ab|---7\---------------------------|
Eb|---0----------------------------|

Eb-----------------------------------|
Bb-----------------------------------|
Gb-5-----5-----5-----5---5-3-3-3----o|
Db-5-----5-----5-----5---5-3-3-3----o|
Ab-3-3-3-3-3-3-3-3-3-3-3-3/5-5-5-----|
Eb-----------------------------------|

Eb-------------------------------------------|
Bb-------------------------------------------|
Gb-------------------------------------------|
Db-------------------------------------------|
Ab----------------------------------7---5/7--|
Eb-0--0-0-0--0-----0-0-0--0-0-0--0----0------|

Eb-----------------------------------|
Bb-----------------------------------|
Gb-------7-5---------5-4---5-7~------|
Db---5-9-----5---5-9-----5-----------|
Ab-7-----------7---------------------|
Eb-----------------------------------|
Pre-Chorus:

Eb-----------------------------------|
Bb-----------------------------------|
Gb-9--5--7-----4-----9-----5-----7---|
Db-9--5--7-----4-----9-----5-----7---|
Ab-7--3--5-----2-----7-----3-----5---|
Eb-----------------------------------|

Chorus:

Eb-----------------------------|-----------------|
Bb-----------------------------|-----------------|
Gb-9---5---7---4-----------5---|-9---5---7---4---|
Db-9---5---7---4---5---4---5---|-9---5---7---4---|
Ab-7---3---5---2---5---4---3---|-7---3---5---2---|
Eb-----------------3---2-------|-----------------|

Eb------------------------------------------------------|
Bb------------------------------------------------------|
Gb------------------------------------------------------|
Db-5----5-5--2----2-2--4----4-4--5-5-5-5-7-7-7-7--------|
Ab-5----5-5--2----2-2--4----4-4--5-5-5-5-7-7-7-7--------|
Eb-3-3333-3--0-0000-0--2-2222-2--3-3-3-3-5-5-5-5--------|

Eb---------------------------------------------------|
Bb---------------------------------------------------|
Gb---------------------------------------------------|
Db---------------------------------------------------|
Ab---------------------------------------------------|
Eb-0000--0000--0000--0000--0000--12\-----------------|

Repeat Verse
Repeat Chorus

*Here comes a big long part with no guitar for awhile.
Eb-----------------------------|
Bb-----------------------------|
Gb-9---------------------------|
Db-7---------------------------|
Ab-7---------------------------|
Eb-0---------------------------|

Then....

Eb-------------------------------------------------------|
Bb-------------------------------------------------------|
Gb-------------------------------------------------------|
Db-2-----4/5\4--------4/7\4--------4/5\4-----------------|
Ab-2-----2/3\2--2-----2/5\2--2-----2/3\2---2-------------|
Eb-0-0-0--------0-0-0--------0-0-0-------5---3-5--2~~~---|

Solo

                                    This is weird- I think it's right?
Eb------------------------------------------------------------------------|
Bb--18~--17-------17-18-17\12~------9h11h12-9h11h12-9h11h12-7h9h11-7h9h11-|
Gb------------------------------------------------------------------------|
Db------------------------------------------------------------------------|
Ab------------------------------------------------------------------------|
Eb------------------------------------------------------------------------|

Eb---------------------------------------------------------------|
Bb-7h9h11-5h7h9-5h7h9-5h7h9-4h5h7-4h5h7p5-4~---------------------|
Gb---------------------------------------------------------------|
Db---------------------------------------------------------------|
Ab---------------------------------------------------------------|
Eb---------------------------------------------------------------|
Then just repeat everything in the above solo again 1 fret higher.

Play chorus, verse, whatever is left, it's all already tabbed.

                                             (Yea I tried.)





Comments


Popular Kamelot tabs & chords
Anthem Chords
Center Of The Universe Chords
Love You To Death Chords
A Feast For The Vain Intro Tabs
Forever (Intro) Tabs
Ghost Opera 1 Tabs
Kamelots Glory Tabs
Siege (Intro) Tabs
Anthem Ukulele
Epilogue Ukulele


Song lyrics



↑ Back to top | Tablatures and chords are parodies/interpretations of the original songs. You may use it for private study, scholarship, research or language learning purposes only
© 2014 AZChords.com Contact us | Privacy policy | DMCA | Add/correct tabs | Request tabs | Top 50 tabs