» » »

Blucher Tabs (ver.1)

Artists:  A B C D E F G H I J K L M N O P Q R S T U V W X Y Z # 

Blucher Tabs (ver.1)

Kamelot
Rating:
4/5 (1 vote)

Tabs too difficult? Try these video lessons and learn fast.
                Blücher - Kamelot

This is my first tab so I think especially the timing
won’t be so precise. The notes are correct as far as
I can see, so the song should be playable with this tab.
It’s a very easy to play so have fun with it!!

BewilderedSon/Jordi


Tuning: Half step down

Intro :

Keyboard plays:

D#      Bb C# D#        C# Bb
D#      Bb C# D#        Bb (one octave higher)

Guitar Chorus Riff:
--------------------------------------------------|
--------------------------------------------------|
--------------------------------------------------|
--------------------------------------------------|
-------------2-----------------2------------------|
----2--3--5-----5--3--2--3--5-----5--3------------| (8x)
palm mute .............................

Guitar Melody (possibly somewhere else on the neck):
---------7------5--3--------------------7------5--7--10------------------|
----5-----------------3------------5-------------------------------------|
-------------------------------------------------------------------------|
-------------------------------------------------------------------------|
-------------------------------------------------------------------------|
-------------------------------------------------------------------------|
                                                                                         
                                         unsure:
---------7------5--3----------------------------------------------------|
----5-----------------3--------5------5--7--8----------20^22-19---------|
-----------------------------------------------7------------------------|
------------------------------------------------------------------------|
------------------------------------------------------------------------|
------------------------------------------------------------------------|

Guitar Riff 1:
------------------------------------------------------------------------|
------------------------------------------------------------------------|
------------------------------------------------------------------------|
---4-4-444-4444-----4-4-444-44444-4-5----4-4-444-4--------4-4-444-44444-|
---4-4-444-4444-----4-4-444-44444-4-5----4-4-444-4--------4-4-444-44444-|
---2-2-222-2222-----2-2-222-22222-2-3----2-2-222-2--------2-2-222-22222-|
Palm mute..........................      ..............................


Verse:

Guitar Verse Riff:
-------------------------------------------------------------|
-------------------------------------------------------------|
-------------------------------------------------------------|
-------------------------------------------------------------|
-----------------------2----------------------------2--------|
2-2-222-2-222-2-2223-5---5-3-2-2-222-2-222-2-2223-5---5-3-2--|  (2x)
Palm mute .................................................

Guitar Riff 1:
------------------------------------------------------------------------|
------------------------------------------------------------------------|
------------------------------------------------------------------------|
---4-4-444-4444-----4-4-444-44444-4-5----4-4-444-4--------4-4-444-44444-|
---4-4-444-4444-----4-4-444-44444-4-5----4-4-444-4--------4-4-444-44444-|
---2-2-222-2222-----2-2-222-22222-2-3----2-2-222-2--------2-2-222-22222-|
Palm mute..........................      ..............................


Chorus:

Guitar Chorus Riff:
--------------------------------------------------|
--------------------------------------------------|
--------------------------------------------------|
--------------------------------------------------|
-------------2-----------------2------------------|
----2--3--5-----5--3--2--3--5-----5--3------------| (8x)
palm mute .............................


Pre-Verse

Guitar Verse Riff:
-------------------------------------------------------------|
-------------------------------------------------------------|
-------------------------------------------------------------|
-------------------------------------------------------------|
-----------------------2----------------------------2--------|
2-2-222-2-222-2-2223-5---5-3-2-2-222-2-222-2-2223-5---5-3-2--|  (2x)
Palm mute .................................................


Verse
Chorus

Bridge
Haven’t had time to figure this out yet.


Solo:
Only figured out the beginning:
----------------------------------------------------------|
-15h16p15>13>15---151515-16-18 16-15----------------------|
-------------------------------------17-14h15p14>12>14----|
----------------------------------------------------------|
----------------------------------------------------------|
----------------------------------------------------------|

And then something like this:
----------------------------------------------------|
----------------------------------------------------|
-1415141514-12-10--1012101210-9-7--68686-6-4-6>14~--|
----------------------------------------------------|
----------------------------------------------------|
----------------------------------------------------|

After Solo: Guitar Riff 1:
------------------------------------------------------------------------|
------------------------------------------------------------------------|
------------------------------------------------------------------------|
---4-4-444-4444-----4-4-444-44444-4-5----4-4-444-4--------4-4-444-44444-|
---4-4-444-4444-----4-4-444-44444-4-5----4-4-444-4--------4-4-444-44444-|
---2-2-222-2222-----2-2-222-22222-2-3----2-2-222-2--------2-2-222-22222-|
Palm mute..........................      ..............................


Chorus 2x


Outro:

Guitar Riff 1:
-------------------|
-------------------|
-------------------|
---4-4-444-4444----|
---4-4-444-4444----|
---2-2-222-2222----|
Palm mute......
            
Tabs too difficult? Try these video lessons and learn fast.


comments powered by Disqus
↑ Back to top | Tablatures and chords are parodies/interpretations of the original songs. You may use it for private study, scholarship, research or language learning purposes only