» » »

Kamelot, A Feast For The Vain Tabs (ver.2)

Artists:  A B C D E F G H I J K L M N O P Q R S T U V W X Y Z # 

A Feast For The Vain Tabs (ver.2)

Kamelot Tabs
Rating:
0/5 (0 votes)
A Feast For The Vain lessons Tabs too difficult? Try these video lessons and learn fast
                Kamelot's A Feast For The Vain Solo Tab
There are no tabs for this on the internet, so here's mine!

Tuning: Eflat (1/2 step down)


after slow "bendy" part
|--19--17--15-h17-p15------------------|
|---------------------19--17--15-------|
|--------------------------------------|
|--------------------------------------|
|--------------------------------------|
|--------------------------------------|


repeat these 3 with different endings below
|------15-14-h15 p14-------------------|
|--17-----------------17--15--13-------|
|--------------------------------------|
|--------------------------------------|
|--------------------------------------|
|--------------------------------------|


|------14--12-h14-p12------------------|
|--15------------------15--12--15------|
|--------------------------------------|
|--------------------------------------|
|--------------------------------------|
|--------------------------------------|


|--------------------------------------|
|--13---17--15-h17-p15--13--12---------|
|-------------------------------14-----|
|--------------------------------------|
|--------------------------------------|
|--------------------------------------|


first time
|--------------------------------------|
|--------------------------------------|
|----14--12--11--------------11--------|
|----------------14--13--14------------|
|--------------------------------------|
|--------------------------------------|


second time
|--------------------------------------|
|--12----------------------------------|
|------14--12--11--9--8----------------|
|--------------------------------------|
|--------------------------------------|
|--------------------------------------|




runs

|--13-12-10-------12-10-----------10------------------------------|
|-----------13----------13-12--------13-12-10-----13-12-10--------|
|----------------------------------------------------------12-----|
|-----------------------------------------------------------------|
|-----------------------------------------------------------------|
|-----------------------------------------------------------------|


|--12-10----------10----------------------------------------------|
|--------13-12-------13-12-10------13-12-10--------12-10----------|
|-------------------------------------------12-----------12-11----|
|-----------------------------------------------------------------|
|-----------------------------------------------------------------|
|-----------------------------------------------------------------|


|--13-12-10-------12-10-----------10-----------------------------|
|-----------13----------13-12--------13-12-10-----13-12-10-------|
|----------------------------------------------------------12----|
|----------------------------------------------------------------|
|----------------------------------------------------------------|
|----------------------------------------------------------------|


|--------------10----------|
|------10--12------13------|
|--12----------------------|
|--------------------------|
|--------------------------|
|--------------------------|
            

comments powered by Disqus
↑ Back to top | Kamelot Tabs for A Feast For The Vain. Lyrics for acoustic guitar and electric guitar. Tablatures and chords are parodies/interpretations of the original songs. You may use it for private study, scholarship, research or language learning purposes only