>
 >
Withering Away

Withering Away Guitar Tabs

Kalmah - Withering Away chords, tabs, tablatures, lyrics

Guitar lessons | Add/correct | Request | Top 50 tabs Artists:  A B C D E F G H I J K L M N O P Q R S T U V W X Y Z 0-9

Withering Away Guitar Tabs – Kalmah

CD, Sheet music, Poster

Do you like Withering Away? Share with your friends now
Tabs
KALMAH - WITHERING AWAY
-----------------------
					


Lead gtr (intro)


|-7-0-0-7-0-0-5-0-0-5-7-8-7-0-0-7-0-0-10-8-7-------7-0-0-7-0-0-5-0-0-5-7-8-7-0-0-7-0-0--------7-------|
|-------------------------------------------10-8-7-------------------------------------7-8-10---8-10--|
|-----------------------------------------------------------------------------------------------------|
|-----------------------------------------------------------------------------------------------------|
|-----------------------------------------------------------------------------------------------------|
|-----------------------------------------------------------------------------------------------------|


Rhytmn gtr (intro)
|-----------------------------------------------------------------------------------------------------|
|-----------------------------------------------------------------------------------------------------|
|-----------------------------------------------------------------------------------------------------|
|-2-----------------------------------9---------------2--------------------------------------9--------|
|-2-------------------------------------12-10-9-------2---------------------------------10-9---10-9---|
|-0---------------------------------------------12-11-0--------------------------------8--------------|






Lead gtr (Chorus)


|-7-000-7-000-5-000-5-7-8-7-000-7-000-10-8-7--------7-000-7-000-5-000-5-7-8-7-000-7-000--------7------|
|--------------------------------------------10-8-7-------------------------------------7-8-10---8-10-|
|-----------------------------------------------------------------------------------------------------|
|-----------------------------------------------------------------------------------------------------|
|-----------------------------------------------------------------------------------------------------|
|-----------------------------------------------------------------------------------------------------|


|-7-000-7-000-5-000-5-7-8-7-000-7-000-10-8-7--------7-000-7-000-5-000-5-7-8-7-000-7-000--------7------|
|--------------------------------------------10-8-7-------------------------------------7-8-10---8-10-|
|-----------------------------------------------------------------------------------------------------|
|-----------------------------------------------------------------------------------------------------|
|-----------------------------------------------------------------------------------------------------|
|-----------------------------------------------------------------------------------------------------|


|-----7---10---8---7h8p7-----7---10---8---7-----------------------------------------------------------|
|-8-8---8----8---8-------8-8---8----8---8---8-10-7-7-7-10-8-7-7-7-10-8--------------------------------|
|----------------------------------------------------------------------9-9-8-9p8---9p8----------------|
|--------------------------------------------------------------------------------7-----7--------------|
|-----------------------------------------------------------------------------------------------------|
|-----------------------------------------------------------------------------------------------------|




Rhytmn gtr (Chorus):
|---------------------------------------------------------------------------------------------|
|---------------------------------------------------------------------------------------------|
|---------------------------------------------------------------------------------------------|
|--9---9------9----------------7/10-10--9--------9-------9------------------------------------|
|-10--10-----10----------------9/12-12-10-------10--------12-12-10-10-9-9---------------------|
|-------0-0-0--0-0-0--0--0-0-0------------0-0-0----0-0-0-----------------12-12-10-------------|


|---------------------------------------------------------------------------------------------|
|---------------------------------------------------------------------------------------------|
|---------------------------------------------------------------------------------------------|
|--9--------9-----------------7/10-10--9--------9-------------9-------------------------------|
|-10-------10-----------------9/12-12-10-------10---------10-9-10-----------------------------|
|----0-0-0----0-0-0--0--0-0-0------------0-0-0----0-0-0-8-------------------------------------|


|---------------------------------------------------------------------------------------------|
|---------------------------------------------------------------------------------------------|
|---------------------------------------------------------------------------------------------|        
|---------------------------------------------------------------------------------------------|
|-7-7--7-7-7--7-7--7-7-7\5/7--7-7-7\5/7--7-7-7--5-5--5-5-5--5-5--5-5-5--2-2--2-2-2--3-2-3-2---|
|-8-8--8-8-8--8-8--8-8-8\7/8--8-8-8\7/8--8-8-8--3-3--3-3-3--3-3--3-3-3--3-3--3-3-3-----1---1--|




Rhytmn gtr (before 1st verse)
|---------------------------------------------------------------------------------------------|
|--------------------------------9-----7---------------------------------9-----7--------------|
|-----------------------------10-----9--------------------------------10-----9----------------|
|-2---------------------------------------2---------------------------------------------------|
|-2---------------------------------------2---------------------------------------------------|
|-0---------------------------------------0---------------------------------------------------|


Lead gtr (before 1st verse)
|---7---8---7---7---8---7-----------------------------7---8---7---7---8---7-------------------------|
|-5---5---5---5---5---5-----5---8---7---5---5-7-8---5---5---5---5---5---5-----5---8---7---5---8---7-|
|-------------------------5---5---5---4---4---------------------------------5---5---5---4---4---4---|
|---------------------------------------------------------------------------------------------------|
|---------------------------------------------------------------------------------------------------|
|---------------------------------------------------------------------------------------------------|






Rhytmn gtr verse 1:
|----------------------------------------------------------------------------------------------|
|----------------------------------------------------------------------------------------------|
|----------------------------------------------------------------------------------------------|
|-2--2-2-2-7/9---9----------7/10-10----------7/9---9-------------------------------------------|
|-2--2-2-2-9/10-10----------9/12-12----------9/10-10----------10h9-----------------------------|
|-0--0-0-0---------0--0-0-0---------0--0-0-0---------0--0-0-0------10--------------------------|


|----------------------------------------------------------------------------------------------|
|----------------------------------------------------------------------------------------------|
|----------------------------------------------------------------------------------------------|
|-----------7/9---9------------7/10-10------------7/9---9-----------12-10-9--------------------|
|-7--7-7-7--9/10-10--7--7-7-7--9/12-12--7--7-7-7--9/10-10--7--7-7-7----------------------------|
|-8--8-8-8-----------8--8-8-8-----------8--8-8-8-----------8--8-8-8----------------------------|




Lead gtr verse 1:
|---------7--------8-7-----------7-----------------------7---------8-7-----------7-------------------|
|-5 555-5--8-5-555-----8-5-555-5---8-5-555-8-7---------5---8-----------8-------5---8-------8-7-8-----|
|----------------------------------------------7-5-555-------5-555-------5-555-------5-555-----------|
|----------------------------------------------------------------------------------------------------|
|----------------------------------------------------------------------------------------------------|
|----------------------------------------------------------------------------------------------------|




Bridge (rhytmn gtr):
|----------------------------------------------------------------------------------------------------|
|----------------------------------------------------------------------------------------------------|
|----------------------------------------------------------------------------------------------------|
|----------------------------------------------------------------------------------------------------|
|---------------10-10-10-10-10-10-999----------------------------------------------------------------|
|-777777-777777-----------------------7-888888-888888-10-10-10-10-10-10-10-10-10-10-10-10------------|




Bridge (lead gtr):
|----------------------------------------------------------------------------------------------------|
|----------------------------------------------------------------------------------------------------|
|----------------------------------------------------------------------------------------------------|
|---------------999999-777---------------------------------------------------------------------------|
|-999999-999999------------9-10-10-10-10-10-10-10-10-10-10-10-10-11-11-11-11-11-11-11-11-11-11-11-11-|
|----------------------------------------------------------------------------------------------------|






Chorus




Intermediate rhytmn gtr:


|------------------------------|
|------------------------------|
|--------7---------------------|
|---10-9--10-9-7-9-10-5-7-8----|
|-7----------------------------|
|------------------------------|


|------------------------------|
|------------------------------|
|-------4----------------------|
|---5-4---7-5-4-5-7-3-5-4------|
|-7----------------------------|
|------------------------------|




Verse 2


Bridge


Rhytmn gtr (before 1st verse)


Rhytmn gtr (solo)
|-----------------------------------------------------|
|-----------------------------------------------------|
|-----------------------------------------------------|
|-----------------------------------------------------|
|-2--2-2-3-2-2-2-2-2-0h2-3-2-2-2-3-2-2-5-2-2-3-2-2----|
|-0--0-0---0-0---0-0---------0-0---3-3---3-3---3-3----|


|--------------------------------------------------------|
|--------------------------------------------------------|
|--------------------------------------------------------|
|--------------------------------------------------------|
|-2--2-2-3-2-2-2-2-2-3h2-3h2-2--2-2-2-2-2-0--0-0-0-0-0---|
|-5--5-5---5-5---5-5---------3--3-3---3-3-2--2-2---2-2---|


Lead gtr (solo)
|----------------------------------19-0-17-0-15-0-14-0--|
|--------17----------17----------17---------------------|
|------16--16------16--16------16-----------------------|
|----17------17--17------17--17-------------------------|
|--19----------19----------19---------------------------|
|-------------------------------------------------------|


|--------------------------------------------------|
|-------17----------17----------17---------13-12~--|
|-----16--16------16--16------16--16-----12--------|
|---17------17--17------17--17---------14----------|
|-19----------19----------19---------15------------|
|--------------------------------------------------|


|----------------------------------19-0-17-0-15-0-14-0--|
|--------17----------17----------17---------------------|
|------16--16------16--16------16-----------------------|
|----17------17--17------17--17-------------------------|
|--19----------19----------19---------------------------|
|-------------------------------------------------------|


|--------------------------------------------------------------17-19-20--|
|-------17----------17----------17---------------------17-19-20----------|
|-----16--16------16--16------16--16-----------16-17-19------------------|
|---17------17--17------17--17------17-16-17-19--------------------------|
|-19----------19----------19---------------------------------------------|
|------------------------------------------------------------------------|


The rest of the solo will be added soon...




Lead gtr (after solo)
|-------------------------------------------------------------------|
|-------------------------------------------------------------------|
|----------5p4-2p4-------5p4-2--------------------------------------|
|-2--2-2-2---------2-2-2----------------2-------4-------5-----------|
|------------------------------3--3-3-3---3-3-3---3-3-3--3-3-3------|
|-------------------------------------------------------------------|


|-------------------------------------------------------------------|
|-------------------------------------------------------------------|
|----------2-0------------------------------------------------------|
|-------------4-------4---------------2-----------------------------|
|-5--5-5-5--5---5-5-5---5-5-5-3-3-3-3---3-3-3-----------------2--X~-|
|---------------------------------------------3--3-3-3-5-3-2--0--X~-|


Rhytmn gtr (after solo)
|-------------------------------------------------------------------|
|-------------------------------------------------------------------|
|-------------------------------------------------------------------|
|----------5---4-7-------5---4--2-2-2--2-2-2--2-2-2--2-2-2----------|
|----------7---5-5-------7---5--3-3-3--3-3-3--3-3-3--3-3-3----------|
|-0--0-0-0---0--- -0-0-0---0----------------------------------------|


|-------------------------------------------------------------------|
|-------------------------------------------------------------------|
|-------------------------------------------------------------------|
|-4--4-4-4--4-/-2--4--4-4-4--4-/-2---------------------------7-5-4--|
|-5--5-5-5--5-/-3--5--5-5-5--5-/-3-5--5-5-5-5-5-5-5--4-4-4-4--------|
|----------------------------------7--7-7-7-7-7-7-7--5-5-5-5--------|




Chorus





Comments


Popular Kalmah tabs & chords
Windlake Tale Bass Tabs
Bird Of Ill Omen 1 Tabs
Black Waltz Tabs
Dance Of The Water Tabs
Hades Intro Tabs
Heroes To Us 2 Tabs
Moon Of My Nights Tabs
My Nation Intro Tabs
Principle Heroes Tabs
To The Gallows Intro Tabs


Song lyrics



↑ Back to top | Tablatures and chords are parodies/interpretations of the original songs. You may use it for private study, scholarship, research or language learning purposes only
© 2014 AZChords.com Contact us | Privacy policy | DMCA | Add/correct tabs | Request tabs | Top 50 tabs