» » »

My Nation Tabs (ver.1)

Artists:  A B C D E F G H I J K L M N O P Q R S T U V W X Y Z # 

My Nation Tabs (ver.1)

Kalmah
Rating:
0/5 (0 votes)

Hard to play? Try these video lessons and learn fast.
                (Intro)
Here the tab for Kalmah's My Nation.
Keep in mind that the guitar is tuned half step down.

Gtr I

  0:02
Eb|---------------------------------|
Bb|---------------------------------|
Gb|---------------------------------|
Db|-----------------------2---------|
Ab|-7-7-5-7-\-3---3-5---5-2---------|
Eb|-------------------3---0---0-0-0-| x4

Gtr II (enters after the gtr I played the main riff twice)

  0:09                              0:13
Eb|---------------------------------|-------------------------------|
Bb|---------------------------------|-------------------------------|
Gb|---------------------------------|-------------2-----------------|
Db|-5-5-4-5-\-2---2-4---4-2---------|-5-5-4-5---5---5-4-5-2---------|
Ab|-------------------2---2---------|---------------------2---------|
Eb|-----------------------0---0-0-0-|---------------------0---0-0-0-|

First solo 

Eb|---------------------------------|-------------------------------|
Bb|-------------7-8-7h8p7-----------|-------------7-8-10-8-7--------|
Gb|-9-9-7-9---9-----------7-9-------|-9-9-7-9---9------------9------|
Db|---------------------------------|-------------------------------|
Ab|---------------------------------|-------------------------------|
Eb|---------------------------------|-------------------------------|

Eb|-----------------------------------|-----------------------------|
Bb|------------------12---------------|-----------------------------|
Gb|-12-12-11-12---12----14---12-11-12-|-12-12-11-9------------------|
Db|-----------------------------------|-----------------------------|
Ab|-----------------------------------|-----------------------------|
Eb|-----------------------------------|-----------------------------|
            
Hard to play? Try these video lessons and learn fast. | Correct




comments powered by Disqus
↑ Back to top | Tablatures and chords are parodies/interpretations of the original songs. You may use it for private study, scholarship, research or language learning purposes only