>
 >
Heroes To Us

Heroes To Us Guitar Tabs

Kalmah - Heroes To Us chords, tabs, tablatures, lyrics

Guitar lessons | Add/correct | Request | Top 50 tabs Artists:  A B C D E F G H I J K L M N O P Q R S T U V W X Y Z 0-9

Heroes To Us Guitar Tabs – Kalmah

CD, Sheet music, Poster

Do you like Heroes To Us? Share with your friends now
TabsTabs v2
Guitar tabs for the song "Heroes to Us" by Kalmah
Tabs done by alwaysmetal111   2/10/2007
tune all strings down one step from EADGBE
if you'd like to see a video of me playing the song check out


D---------------------------------------------------------------------------------------|
A-------------------------------------------------12-----10-----------------------------|
F------12--9--12--11--9-------9------12--9--9--12----12-----11--------------------------|
C--------------------------12-----------------------------------------------------------|
G---------------------------------------------------------------------------------------|
D---------------------------------------------------------------------------------------|


---------------------------------------------------------------------------------------|
-----12--9--12--11--9------9-----9----9-----11-----11----------------------------------|
-----------------------12----10----10---10-----12-----12-------------------------------|
---------------------------------------------------------------------------------------|
---------------------------------------------------------------------------------------|
---------------------------------------------------------------------------------------|


-----------------------------------------------------------|
-------------------------------------------------12-----7--|(natural harmoic with tremelo x2)
------12--9--12--11--9-------9------12--9--9--12----12-----|
--------------------------12-------------------------------|
-----------------------------------------------------------|
-----------------------------------------------------------|

---------------------------------------------------------------------------------------|
-----12--9--12--11--9------9-----9----9-----11-----11----------------------------------|
-----------------------12----10----10---10-----12-----12-------------------------------|
---------------------------------------------------------------------------------------|
---------------------------------------------------------------------------------------|
---------------------------------------------------------------------------------------|

---------------------------------------------------------------------------------------|
-------------------------------------------------12-----10-----------------------------|
------12--9--12--11--9-------9------12--9--9--12----12-----11--------------------------|
--------------------------12-----------------------------------------------------------|
---------------------------------------------------------------------------------------|
---------------------------------------------------------------------------------------|


---------------------------------------------------------------------------------------|
-----12--9--12--11--9------9-----9----9-----11-----11----------------------------------|
-----------------------12----10----10---10-----12-----12-------------------------------|
---------------------------------------------------------------------------------------|
---------------------------------------------------------------------------------------|
---------------------------------------------------------------------------------------|

-----------------------------------------------------------|
-------------------------------------------------12-----7--|(nat. harmoic push down tremelo x 1)
------12--9--12--11--9-------9------12--9--9--12----12-----|
--------------------------12-------------------------------|
-----------------------------------------------------------|
-----------------------------------------------------------|


---------------------------------------------------------------------------------------|
-----12--9--12--11--9------9-----9----9-----19(natural harmonic with tremelo)----------|
-----------------------12----10----10---10---------------------------------------------|
---------------------------------------------------------------------------------------|
---------------------------------------------------------------------------------------|
---------------------------------------------------------------------------------------|

---------------------------------------------------------------------------------------|
---------------------------------------------------------------------------------------|
---------------------------------------------------------------------------------------|
---------------------------------------2--2--2--2--------------------------------------|
---------------------------------------2--2--2--2--------------------------------------|
-0-0-0-0-0-0-0-0-0-0-0-0-0-0-0-0---0---0--0--0--0--------------------------------------|
play above x 2 total

---------------------------------------------------------------------------------------|
---------------------------------------------------------------------------------------|
---------------------------------------------------------------------------------------|
-----9-7-9---9-7-9---9-7-9--10-9-7--0-4-2-4--0-4-2-4--0-4-2-4--5-4-0-------------------|
---7-------7-------7-------------------------------------------------------------------|
---------------------------------------------------------------------------------------|
play above x 4

---------------------------------------------------------------------------------------|
---------12-10-12-8-10-7--7/8/7(pick first note then hammer on and pull off)-----------|
---9---9---------------------------------------------------------------------7-9*------|
-----9---------------------------------------------------------------------------------|
---------------------------------------------------------------------------------------|
---------------------------------------------------------------------------------------|
play above total of 4 times
on the last time, skip the last note(3rd string 9*)


-------------19-19-17-19-15-17-14-14/15/14(hammeron/pull off again)--------------------|
--17-----17---------------------------------------------------------15-17--------------|
-----16--------------------------------------------------------------------------------|
---------------------------------------------------------------------------------------|
---------------------------------------------------------------------------------------|
---------------------------------------------------------------------------------------|
play above x 3


---------------------------------------------------------------------------------------|
-17--15--13--12--10--8--7--------------------------------------------------------------|
---------------------------------------------------------------------------------------|
---------------------------------------------------------------------------------------|
---------------------------------------------------------------------------------------|
---------------------------------------------------------------------------------------|
play x 1

---------------------------------------------------------------------------------------|
---------------------------------------------------------------------------------------|
---------------------------------------------------------------------------------------|
-----9-7-9---9-7-9---9-7-9--10-9-7--0-4-2-4--0-4-2-4--0-4-2-4--5-4-0-------------------|
---7-------7-------7-------------------------------------------------------------------|
---------------------------------------------------------------------------------------|
play above x 4


---------------------------------------------------------------------------------------|
---------12-10-12-8-10-7--7/8/7(pick first note then hammer on and pull off)-----------|
---9---9---------------------------------------------------------------------7-9*------|
-----9---------------------------------------------------------------------------------|
---------------------------------------------------------------------------------------|
---------------------------------------------------------------------------------------|
play above total of 4 times
on the last time, skip the last note(3rd string 9*)


-------------19-19-17-19-15-17-14-14/15/14(hammeron/pull off again)--------------------|
--17-----17---------------------------------------------------------15-17--------------|
-----16--------------------------------------------------------------------------------|
---------------------------------------------------------------------------------------|
---------------------------------------------------------------------------------------|
---------------------------------------------------------------------------------------|

-------------19-17-19-15-17-14-14/15/14(hammeron/pull off again)-----------------------|
--17-----17---------------------------------------------------------15-17--------------|
-----16--------------------------------------------------------------------------------|
---------------------------------------------------------------------------------------|
---------------------------------------------------------------------------------------|
---------------------------------------------------------------------------------------|

-------------19-19-17-19-15-17-14-14/15/14(hammeron/pull off again)--------------------|
--17-----17---------------------------------------------------------15-17--------------|
-----16--------------------------------------------------------------------------------|
---------------------------------------------------------------------------------------|
---------------------------------------------------------------------------------------|
---------------------------------------------------------------------------------------|


---------------------------------12-10-------------------------------------------------|
-17--15--13--12--10--8--7--8---8-------13-12-10----10----10--8-------------------------|
-----------------------------9------------------12----11------9-8-9--------------------|
---------------------------------------------------------------------------------------|
---------------------------------------------------------------------------------------|
---------------------------------------------------------------------------------------|


---------------------------------------------------------------------------------------|
-----13-12-10------------13-12-10----------------10-8--------------10-8----------------|
---9----------12-9-----9----------12-11-----8-11------11-8----8-11------11-9-----------|
-9-------------------9--------------------9-----------------9--------------------------|
---------------------------------------------------------------------------------------|
---------------------------------------------------------------------------------------|


-------------------------------------------12-10---------------------------------------|
-----13-12-10------------13-12-10----8---8-------13-12-10----10----10--8---------------|
---9----------12-9-----9----------12---9------------------12----11-------9-8-9---------|
-9-------------------9-----------------------------------------------------------------|
---------------------------------------------------------------------------------------|
---------------------------------------------------------------------------------------|

---------------------------------------------------------------------------------------|
-----13-12-10------------13-12-10----------------10-8--------------10-8----------------|
---9----------12-9-----9----------12-11-----8-11------11-8----8-11------11-9-----------|
-9-------------------9--------------------9-----------------9--------------------------|
---------------------------------------------------------------------------------------|
---------------------------------------------------------------------------------------|

-------------------------------------------12-10---------------------------------------|
-----13-12-10------------13-12-10----8---8-------13-12-10----10----10--8---------------|
---9----------12-9-----9----------12---9------------------12----11-------9-8-9---------|
-9-------------------9-----------------------------------------------------------------|
---------------------------------------------------------------------------------------|
---------------------------------------------------------------------------------------|

---------------------------------------------------------------------------------------|
---------------------------------------------------------------------------------------|
------12--9--12--11--9---7 slide to 9--11-7-11-12-9-9-7--------------------------------|
---------------------------------------------------------------------------------------|
---------------------------------------------------------------------------------------|
---------------------------------------------------------------------------------------|

---------------------------------------------------------------------------------------|
---------------------------------------------------------------------------------------|
------12--9--12--11--9---7 slide to 9--11-7-11-12-9---7--------------------------------|
---------------------------------------------------------------------------------------|
---------------------------------------------------------------------------------------|
---------------------------------------------------------------------------------------|

---------------------------------------------------------------------------------------|
---------------------------------------------------------------------------------------|
------12--9--12--11--9---7 slide to 9--11-7-11-12-9-9-7--------------------------------|
---------------------------------------------------------------------------------------|
---------------------------------------------------------------------------------------|
---------------------------------------------------------------------------------------|

---------------------------------------------------------------------------------------|
---------------------------------------------------------------------------------------|
------12--9--12--11--9---7 slide to 9------------11---7--------------------------------|
---------------------------------------------------------------------------------------|
---------------------------------------------------------------------------------------|
---------------------------------------------------------------------------------------|

---------------------------------------------------------------------------------------|
---------------------------------------------------------------------------------------|
---------------------------------------------------------------------------------------|
----2-2-2-2-2-2-2-2-2-2-2-2-----2-2-2-2-2-2-2-2-2-2-2-2--------------------------------|
----2-2-2-2-2-2-2-2-2-2-2-2-----2-2-2-2-2-2-2-2-2-2-2-2--------------------------------|
----0-0-0-0-0-0-0-0-0-0-0-0-----0-0-0-0-0-0-0-0-0-0-0-0--------------------------------|


---------------------------------------------------------------------------------------|
---------------------------------------------------------------------------------------|
---------------------------------------------------------------------------------------|
----5-5-5-5-5-5-5-5-5-5-5-5-----7-7-7-7-7-7-7-7-7-7-7-7--------------------------------|
----5-5-5-5-5-5-5-5-5-5-5-5-----7-7-7-7-7-7-7-7-7-7-7-7--------------------------------|
----3-3-3-3-3-3-3-3-3-3-3-3-----5-5-5-5-5-5-5-5-5-5-5-5--------------------------------|


---------------------------------------------------------------------------------------|
---------------------------------------------------------------------------------------|
---------------------------------------------------------------------------------------|
----2-2-2-2-2-2-2-2-2-2-2-2-----2-2-2-2-2-2-2-2-2-2-2-2--------------------------------|
----2-2-2-2-2-2-2-2-2-2-2-2-----2-2-2-2-2-2-2-2-2-2-2-2--------------------------------|
----0-0-0-0-0-0-0-0-0-0-0-0-----0-0-0-0-0-0-0-0-0-0-0-0--------------------------------|


---------------------------------------------------------------------------------------|
---------------------------------------------------------------------------------------|
---------------------------------------------------------------------------------------|
----5-5-5-5-5-5-5-5-5-5-5-5-----7-7-7-7-7-7-7-7-7-7-7-7--------------------------------|
----5-5-5-5-5-5-5-5-5-5-5-5-----7-7-7-7-7-7-7-7-7-7-7-7--------------------------------|
----3-3-3-3-3-3-3-3-3-3-3-3-----5-5-5-5-5-5-5-5-5-5-5-5--------------------------------|

---------------------------------------------------------------------------------------|
---8-8-12-8--8-8-12-8-10-7-8---8-8-12-8--8-8-12-8-10-7-8---8-8-12-8--8-8-12-8-10-7-8---|
---------------------------------------------------------------------------------------|
---------------------------------------------------------------------------------------|
---------------------------------------------------------------------------------------|
---------------------------------------------------------------------------------------|


-----------------------7---8-7---------------------------------------------------------|
---7-7-10-7--7-7-10-7----8-----10------------------------------------------------------|
---------------------------------------------------------------------------------------|
---------------------------------------------------------------------------------------|
---------------------------------------------------------------------------------------|
---------------------------------------------------------------------------------------|


---------------------------------------------------------------------------------------|
---8-8-12-8--8-8-12-8-10-7-8---8-8-12-8--8-8-12-8-10-7-8---8-8-12-8--8-8-12-8-10-7-8---|
---------------------------------------------------------------------------------------|
---------------------------------------------------------------------------------------|
---------------------------------------------------------------------------------------|
---------------------------------------------------------------------------------------|


-----------------------7---8-7---------------------------------------------------------|
---7-7-10-7--7-7-10-7----8-----10------------------------------------------------------|
---------------------------------------------------------------------------------------|
---------------------------------------------------------------------------------------|
---------------------------------------------------------------------------------------|
---------------------------------------------------------------------------------------|


solo -it is based on the pentatonic scale, with almost all triads, I haven't figured
out all the notes, so I have not included it here

---------------------------------------------------------------------------------------|
-------------------------------------------------12-----10-----------------------------|
------12--9--12--11--9-------9------12--9--9--12----12-----11--------------------------|
--------------------------12-----------------------------------------------------------|
---------------------------------------------------------------------------------------|
---------------------------------------------------------------------------------------|

---------------------------------------------------------------------------------------|
-----12--9--12--11--9------9-----------------------------------------------------------|
-----------------------12-----11-7-11-12-9-7(artificial harmonic)----------------------|
---------------------------------------------------------------------------------------|
---------------------------------------------------------------------------------------|
---------------------------------------------------------------------------------------|

-----------------------------------------------------------|
-------------------------------------------------12-----7--|(nat. harmoic with tremelo x2)
------12--9--12--11--9-------9------12--9--9--12----12-----|
--------------------------12-------------------------------|
-----------------------------------------------------------|
-----------------------------------------------------------|


---------------------------------------------------------------------------------------|
-----12--9--12--11--9------9-----------------------------------------------------------|
-----------------------12-----11-7-11-12-9-7(slight push down on tremelo)--------------|
---------------------------------------------------------------------------------------|
---------------------------------------------------------------------------------------|
---------------------------------------------------------------------------------------|


---------------------------------------------------------------------------------------|
---------------------------------------------------------------------------------------|
---------------------------------------------------------------------------------------|
---2-2-2--2-2-2--2-2-2--2-2-2---2-2-2--2-2-2-2--2-2-2-2--2-2-2-2-----------------------|
---2-2-2--2-2-2--2-2-2--2-2-2---2-2-2--2-2-2-2--2-2-2-2--2-2-2-2-----------------------|
---0-0-0--0-0-0--0-0-0--0-0-0---0-0-0--0-0-0-0--0-0-0-0--0-0-0-0-----------------------|

---------------------------------------------------------------------------------------|
---------------------------------------------------------------------------------------|
---------------------------------------------------------------------------------------|
-----9-7-9---9-7-9---9-7-9--10-9-7--0-4-2-4--0-4-2-4--0-4-2-4--5-4-0-------------------|
---7-------7-------7-------------------------------------------------------------------|
---------------------------------------------------------------------------------------|
play above x 4


--------12-10--------------------------------------------------------------------------|
--8---8-------13-12-10----10----10--8--------------------------------------------------|
----9------------------12----11------9-8-9---------------------------------------------|
---------------------------------------------------------------------------------------|
---------------------------------------------------------------------------------------|
---------------------------------------------------------------------------------------|


---------------------------------------------------------------------------------------|
-----13-12-10------------13-12-10----------------10-8--------------10-8----------------|
---9----------12-9-----9----------12-11-----8-11------11-8----8-11------11-9-----------|
-9-------------------9--------------------9-----------------9--------------------------|
---------------------------------------------------------------------------------------|
---------------------------------------------------------------------------------------|


-------------------------------------------12-10---------------------------------------|
-----13-12-10------------13-12-10----8---8-------13-12-10----10----10--8---------------|
---9----------12-9-----9----------12---9------------------12----11-------9-8-9---------|
-9-------------------9-----------------------------------------------------------------|
---------------------------------------------------------------------------------------|
---------------------------------------------------------------------------------------|


---------------------------------------------------------------------------------------|
-----13-12-10------------13-12-10----------------10-8--------------10-8----------------|
---9----------12-9-----9----------12-11-----8-11------11-8----8-11------11-9-----------|
-9-------------------9--------------------9-----------------9--------------------------|
---------------------------------------------------------------------------------------|
---------------------------------------------------------------------------------------|


-------------------------------------------12-10---------------------------------------|
-----13-12-10------------13-12-10----8---8-------13-12-10----10----10--8---------------|
---9----------12-9-----9----------12---9------------------12----11-------9-8-9---------|
-9-------------------9-----------------------------------------------------------------|
---------------------------------------------------------------------------------------|
---------------------------------------------------------------------------------------|


----------19-19-17-19-15-17-14-14/15/14(hammer on)-------------------------------------|
----17---------------------------------------------15-17-------------------------------|
-------16------------------------------------------------------------------------------|
---------------------------------------------------------------------------------------|
---------------------------------------------------------------------------------------|
---------------------------------------------------------------------------------------|





Comments


Popular Kalmah tabs & chords
Windlake Tale Bass Tabs
Bird Of Ill Omen Tabs
Bird Of Ill Omen 1 Tabs
Bitter Metallic Side Tabs
Dance Of The Water Tabs
Heritance Of Berija Tabs
Heroes To Us 2 Tabs
Heroes To Us Intro 1 Tabs
My Nation Intro Tabs
Swamphell Tabs


Song lyrics



↑ Back to top | Tablatures and chords are parodies/interpretations of the original songs. You may use it for private study, scholarship, research or language learning purposes only
© 2014 AZChords.com Contact us | Privacy policy | DMCA | Add/correct tabs | Request tabs | Top 50 tabs