>
 >
Defeat

Defeat Guitar Tabs

Kalmah - Defeat chords, tabs, tablatures, lyrics

Guitar lessons | Add/correct | Request | Top 50 tabs Artists:  A B C D E F G H I J K L M N O P Q R S T U V W X Y Z 0-9

Defeat Guitar Tabs – Kalmah

CD, Sheet music, Poster

Do you like Defeat? Share with your friends now
Tabs
Guitar Tabs for song "Defeat" by Kalmah, not including the solo.
Tabs done by alwaysmetal111.  If you'd like to see a clip of me playing the song check 
Tuning used: all strings down one step from EADGBE.


1D----------------------------------------------------------------------------------------------|
2A----------------------------------------------------------------------------------------------|
3F----------------------------------------------------------------------------------------------|
4C------2-----9-8-7-1O slide (while pushing hard) to 7------------------------------------------|
5G--5-4-2---7----------------------------------------------10-9-7-------------------------------|
6D--3-2-0-----------------------------------------------8---------------------------------------|

D-----------------------------------------------------------------------------------------------|
A-----------------------------------------------------------------------------------------------|
F-----------------------------------------------------------------------------------------------|
C------2-----9-8-7*-1O slide (while pushing hard) to 7------------------------------------------|
G--5-4-2---7-----------------------------------------------10-9-7-------------------------------|
D--3-2-0------------------------------------------------8---------------------------------------|
*=artificial harmonic

D-----------------------------------------------------------------------------------------------|
A-----------------------------------------------------------------------------------------------|
F-----------------------------------------------------------------------------------------------|
C------2-----9-8-7-1O slide (while pushing hard) to 7-------------------------------------------|
G--5-4-2---7----------------------------------------------10-9-7--------------------------------|
D--3-2-0-----------------------------------------------8----------------------------------------|

D-----------------------------------------------------------------------------------------------|
A-----------------------------------------------------------------------------------------------|
F-----------------------------------------------------------------------------------------------|
C------2-----9-8-7*-1O slide to 7-----------------------2---------2-2---------------------------|
G--5-4-2---7--------------------------------10-9-7--5-4-2---------2-2---------------------------|
D--3-2-0----------------------------------8---------3-2-0---------0-0---------------------------|
*= artificial harmonic

D-----------------------------------------------------------------------------------------------|
A-----------------------------------------------------------------------------------------------|
F-----------------------------------------------------------------------------------------------|
C--------9-------9-------8-------8-------5-------5-------5--------------------------------------|
G--7-7-7---7-7-7---7-7-7---7-7-7---4-4-4---4-4-4---3-3-3----------------------------------------|
D----------------------------------------------------------5-3-2-0------------------------------|
play above measure x 4

D-----------------------------------------------------------------------------------------------|
A-----------------------------------------------------------------------------------------------|
F-----------------------------------------------------------------------------------------------|
C-----------------------------------------------------------------------------------------------|
G----------7-7-7-7-5-5-5-5-7-7-7-7-3-3-3-3-3-3-3-3-5-5-5-5-5-5-5-5------------------------------|
D--0-0-0-0--------------------------------------------------------------------------------------|
play above measure x 4, it's easier to alternate pick fast here and try to stay
in timing instead of counting each note

D-12-12-12-12-15-15-15-15-14-14-14-14-15-15-15-15-12-12-12-12-------------14-14-14-14-------------|
A-------------------------------------------------------------13-13-13-13------------15-15-15-15--|
F-------------------------------------------------------------------------------------------------|
C-------------------------------------------------------------------------------------------------|
G-------------------------------------------------------------------------------------------------|
D-------------------------------------------------------------------------------------------------|

D-12-12-12-12-15-15-15-15-14-14-14-14-15-15-15-15-17-17-17-17-15-15-15-15-17 slide to 19--17----|
A-----------------------------------------------------------------------------------------------|
F-----------------------------------------------------------------------------------------------|
C-----------------------------------------------------------------------------------------------|
G-----------------------------------------------------------------------------------------------|
D-----------------------------------------------------------------------------------------------|

D-12-12-12-12-15-15-15-15-14-14-14-14-15-15-15-15-12-12-12-12-------------14-14-14-14-------------|
A-------------------------------------------------------------13-13-13-13------------15-15-15-15--|
F-------------------------------------------------------------------------------------------------|
C-------------------------------------------------------------------------------------------------|
G-------------------------------------------------------------------------------------------------|
D-------------------------------------------------------------------------------------------------|

D-12-12-12-12-15-15-15-15-14-14-14-14-15-15-15-15-17-17-17-17-15-15-15-15-17 slide to 19--17----|
A-----------------------------------------------------------------------------------------------|
F-----------------------------------------------------------------------------------------------|
C-----------------------------------------------------------------------------------------------|
G-----------------------------------------------------------------------------------------------|
D-----------------------------------------------------------------------------------------------|

D------------------------------------------------------------------------------------|
A--5--8-7bend up 1/2 step and back down---3-5----8 slide to 12-13-12-13 slide to 15--|
F------------------------------------------------------------------------------------|
C------------------------------------------------------------------------------------|pick slide
G------------------------------------------------------------------------------------|pick slide
D------------------------------------------------------------------------------------|pick slide

D-----------------------------------------------------------------------------------------------|
A-----------------------------------------------------------------------------------------------|
F----------------5-------------4-2-2-2-2-2-2----------------------------------------------------|
C--2-------------5-------------4-2-2-2-2-2-2-5-5-5-5-4-4-4--2-----------------------------------|
G--2-------------3-------------2-0-0-0-0-0-0-5-5-5-5-4-4-4--2-----------------------------------|
D--0-0-0-0-0-0-0---0-0-0-0-0-0---------------3-3-3-3-2-2-2--0-----------------------------------|
play above measure x 4

D-----------------------------------------------------------------------------------------------|
A-----------------------------------------------------------------------------------------------|
F-----------------------------------------------------------------------------------------------|
C--------9-------9-------8-------8-------5-------5-------5--------------------------------------|
G--7-7-7---7-7-7---7-7-7---7-7-7---4-4-4---4-4-4---3-3-3----------------------------------------|
D----------------------------------------------------------5-3-2-0------------------------------|
play above measure x 4

D-----------------------------------------------------------------------------------------------|
A-----------------------------------------------------------------------------------------------|
F----------------5-------------4-2-2-2-2-2-2----------------------------------------------------|
C--2-------------5-------------4-2-2-2-2-2-2-5-5-5-5-4-4-4--2-----------------------------------|
G--2-------------3-------------2-0-0-0-0-0-0-5-5-5-5-4-4-4--2-----------------------------------|
D--0-0-0-0-0-0-0---0-0-0-0-0-0---------------3-3-3-3-2-2-2--0-----------------------------------|
play above measure x 4

D-----------------------------------------------------------------------------------------------|
A-----------------------------------------------------------------------------------------------|
F-----------------------------------------------------------------------------------------------|
C----9-8-7--------------7-----------------------------------------------------------------------|
G--7-------10-7--7-9-10---10-9----10---10-------------------------------------------------------|
D-------------------------------9----8----3-2-3-2-5-3-2-0---------------------------------------|
play above measure x 3

D-----------------------------------------------------------------------------------------------|
A-----------------------------------------------------------------------------------------------|
F-----------------------------------------------------------------------------------------------|
C----9-8-7--------------7-------------------------------2---------------------------------------|
G--7-------10-7--7-9-10---10-9----10---10---------------2---------------------------------------|
D-------------------------------9----8----3-2-3-2-5-3-2-0---------------------------------------|

D-----------------------------------------------------------------------------------------------|
A-----------------------------------------------------------------------------------------------|
F------------4-5-4---4--------------------4-5-4---4---------------------------------------------|
C--4-5-7-5-7-------7---7-5-4----4-5-7-5-7-------7---7-5-----------------------------------------|
G----------------------------7--------------------------7-3-------------------------------------|
D-----------------------------------------------------------------------------------------------|


D-----------------------------------------------------------------------------------------------|
A-----------------------------------------------------------------------------------------------|
F------------4-5-4---4--------------------4-5-4---4---4-5---------------------------------------|
C--4-5-7-5-7-------7---7-5-0-4--4-5-7-5-7-------7---7-------------------------------------------|
G---------------------------------------------------------7-------------------------------------|
D-----------------------------------------------------------------------------------------------|
play above two measures in a row 4 times


D-------------------------------------------------------------------------------------------------|
A-------------------------------------------------------------------------------------------------|
F-------------------------------------------------------------------------------------------------|
C--2-------2-------2-------2-------5-------5-------5-------5-------7-------7-------7-------7------|
G--2-------2-------2-------2-------5-------5-------5-------5-------7-------7-------7-------7------|
D--0-0-0-0-0-0-0-0-0-0-0-0-0-0-0-0-3-3-3-3-3-3-3-3-3-3-3-3-3-3-3-3-5-5-5-5-5-5-5-5-5-5-5-5-5-5-5--|


D-----------------------------------------------------------------------------------------------|
A-----------------------------------------------------------------------------------------------|
F-----------------------------------------------------------------------------------------------|
C--5-------5-----4-------4----------------------------------------------------------------------|
G--5-------5-----4-------4----------------------------------------------------------------------|
D--3-3-3-3-3-3-3-2-2-2-2-2-2-2------------------------------------------------------------------|


D-------------------------------------------------------------------------------------------------|
A-------------------------------------------------------------------------------------------------|
F-------------------------------------------------------------------------------------------------|
C--2-------2-------2-------2-------5-------5-------5-------5-------7-------7-------7-------7------|
G--2-------2-------2-------2-------5-------5-------5-------5-------7-------7-------7-------7------|
D--0-0-0-0-0-0-0-0-0-0-0-0-0-0-0-0-3-3-3-3-3-3-3-3-3-3-3-3-3-3-3-3-5-5-5-5-5-5-5-5-5-5-5-5-5-5-5--|


D-----------------------------------------------------------------------------------------------|
A-----------------------------------------------------------------------------------------------|
F-----------------------------------------------------------------------------------------------|
C--10------10----12----------12-----------------------------------------------------------------|
G--10------10----12----------12-----------------------------------------------------------------|
D--8-8-8-8-8-8-8-10-10-10-10-10-10-10-----------------------------------------------------------|
play above four measures two times in row (rhythm for solo)

D-----------------------------------------------------------------------------------------------|
A-----------------------------------------------------------------------------------------------|
F-----------------------------------------------------------------------------------------------|
C-----------------------------------------------------------------------------------------------|
G----------7-7-7-7-5-5-5-5-7-7-7-7-3-3-3-3-3-3-3-3-5-5-5-5-5-5-5-5------------------------------|
D--0-0-0-0--------------------------------------------------------------------------------------|
play x 4

D-12-12-12-12-15-15-15-15-14-14-14-14-15-15-15-15-12-12-12-12-------------14-14-14-14-------------|
A-------------------------------------------------------------13-13-13-13------------15-15-15-15--|
F-------------------------------------------------------------------------------------------------|
C-------------------------------------------------------------------------------------------------|
G-------------------------------------------------------------------------------------------------|
D-------------------------------------------------------------------------------------------------|

D-12-12-12-12-15-15-15-15-14-14-14-14-15-15-15-15-17-17-17-17-15-15-15-15-17 slide to 19--17----|
A-----------------------------------------------------------------------------------------------|
F-----------------------------------------------------------------------------------------------|
C-----------------------------------------------------------------------------------------------|
G-----------------------------------------------------------------------------------------------|
D-----------------------------------------------------------------------------------------------|

D-12-12-12-12-15-15-15-15-14-14-14-14-15-15-15-15-12-12-12-12-------------14-14-14-14-------------|
A-------------------------------------------------------------13-13-13-13------------15-15-15-15--|
F-------------------------------------------------------------------------------------------------|
C-------------------------------------------------------------------------------------------------|
G-------------------------------------------------------------------------------------------------|
D-------------------------------------------------------------------------------------------------|

D-12-12-12-12-15-15-15-15-14-14-14-14-15-15-15-15-17-17-17-17-15-15-15-15-17 slide to 19--17----|
A-----------------------------------------------------------------------------------------------|
F-----------------------------------------------------------------------------------------------|
C-----------------------------------------------------------------------------------------------|
G-----------------------------------------------------------------------------------------------|
D-----------------------------------------------------------------------------------------------|

D-------------------------------------------------------------------------------------------------|
A-5-8-7-3-5-8-10-8-7-3--5-8-7-3-5-8-10-8-7-3-5-12-10------12-13-12-10-----12-10------12-13-12-10--|
F---------------------------------------------------11-12------------11-12------11-12-------------|
C-------------------------------------------------------------------------------------------------|
G-------------------------------------------------------------------------------------------------|
D-------------------------------------------------------------------------------------------------|

D-----------------------------------------------------------------------------------------------|
A-----------------------------------------------------------------------------------------------|
F----------------5-------------4-2-2-2-2-2-2----------------------------------------------------|
C--2-------------5-------------4-2-2-2-2-2-2-5-5-5-5-4-4-4--2-----------------------------------|
G--2-------------3-------------2-0-0-0-0-0-0-5-5-5-5-4-4-4--2-----------------------------------|
D--0-0-0-0-0-0-0---0-0-0-0-0-0---------------3-3-3-3-2-2-2--0-----------------------------------|
play above measure x 4

D-----------------------------------------------------------------------------------------------|
A-----------------------------------------------------------------------------------------------|
F-----------------------------------------------------------------------------------------------|
C----9-8-7--------------7-----------------------------------------------------------------------|
G--7-------10-7--7-9-10---10-9----10---10-------------------------------------------------------|
D-------------------------------9----8----3-2-3-2-5-3-2-0---------------------------------------|
play above measure x 4

D-----------------------------------------------------------------------------------------------|
A-----------------------------------------------------------------------------------------------|
F-----------------------------------------------------------------------------------------------|
C--------9-------9-------8-------8-------5-------5-------5--------------------------------------|
G--7-7-7---7-7-7---7-7-7---7-7-7---4-4-4---4-4-4---3-3-3----------------------------------------|
D----------------------------------------------------------5-3-2-0------------------------------|
play above measure x 4

D-----------------------------------------------------------------------------------|
A-----------------------------------------------------------------------------------|
F-----------------------------------------------------------------------------------|
C--2-2-2-------2--------------------------------------------------------------------|
G--2-2-2-------2--------------------------------------------------------------------|
D--0-0-0-5-3-2-0--------------------------------------------------------------------|





Comments


Popular Kalmah tabs & chords
Bitter Metallic Side Tabs
Hades Tabs
Hades Intro Tabs
Heroes To Us Tabs
Heroes To Us 2 Tabs
Heroes To Us Intro Tabs
Principle Heroes Tabs
Swamphell Tabs
Third The Magical Tabs
To The Gallows Intro Tabs


Song lyrics



↑ Back to top | Tablatures and chords are parodies/interpretations of the original songs. You may use it for private study, scholarship, research or language learning purposes only
© 2014 AZChords.com Contact us | Privacy policy | DMCA | Add/correct tabs | Request tabs | Top 50 tabs