» » »

Se Te Olvido Tabs (ver.1)

Artists:  A B C D E F G H I J K L M N O P Q R S T U V W X Y Z # 

Se Te Olvido Tabs (ver.1)

Kalimba
Rating:
5/5 (1 vote)

Hard to play? Try these video lessons and learn fast.
                Kalimba - 'Se Te Olivido'
Standard tuning


Chords-

      E  A  D  G  B  E

F     1  3  3  2  1  1

C     x  x 10  9  8  8

Dm    x  x  7  7  6  5  

Bb5   x  1  3  3




Intro    
e|------------------------|---------------------|------------------|---------|
B|-8h10---------8b10-8----|-8b10--8-------6-----|-6----------6---6-|---------|
G|---------------------10-|---------------5h7-5-|---5--------5h7-5-|-5-------|
D|------------------------|---------------------|------------------|-5h7-----|
A|------------------------|---------------------|------------------|---------|
E|------------------------|---------------------|------------------|---------|






Verse Riff - play 2x similarly
e|-----------|-------------|------------|-------------|
B|-----------|-------------|------------|----------1--|
G|-----------|-5-----5-5---|------------|----------3--|
D|---------3-|-5-----5-7---|---------8\-|-3--------3--|
A|---------3-|-3-----------|-8-------8\-|-3-----------|
E|---------1-|-------------|-6-------6\-|-1-----------|






Prechorus - with organ
e|-------------------------|------------------------|-------------------------|
B|-------------------------|------------------------|-------------------------|
G|-7--7--7--7--7--7--7--7--|-5--5--5--5--5--5--5--5-|-------------3--3----3---|
D|-7--7--7--7--7--7--7--7--|-5--5--5--5--5--5--5--5-|-5--5--5-----5--5----5---|
A|-5--5--5--5--5--5--5--5--|-3--3--3--3--3--3--3--3-|-5--5--5-----5--5----5---|
E|-------------------------|------------------------|-3--3--3-----3--3----3---|

e|-----------------------|
B|-----------------------|
G|------7------7-7----7--|
D|-8----8------8-8----8--|
A|-8----8------8-8----8--|
E|-6----6------6-6----6--|







Chorus - One guitar plays single notes, other guitar plays chords shown

   F                 C               Dm                Bb5
e|-----------------|---------------|-----------------|---------------|
B|-----1-------1---|-----1---------|-----1-------1---|-----1---------|
G|---2---2---2-----|---0---0-------|---2---2---2-----|---3---3-------| play 
D|-3-------3-------|-2-------------|-0---------------|-3-------------|  2x
A|-----------------|---------------|-----------------|---------------|
E|-----------------|---------------|-----------------|---------------|

Chorus End:
   Gm        A    Bb 
e|-3---------5--|-6----------|
B|-3---------5--|-6----------|
G|-3---------6--|-7----------|
D|-5---------7--|-8----------|
A|-5------------|------------|
E|-3------------|------------|





Repeat Intro

Repeat Verse 

Repeat PreChorus and Chorus




Ending Solo (3:53)

e|----------------8----------|---------------------|---------------------|
B|------8b10~~------8b10r8-6-|-8~~~-------6------6-|---------------------|
G|-8/10----------------------|------------5h7p5----|-5h7~-------5--------|
D|---------------------------|---------------------|------------5h7-7--5-|
A|---------------------------|---------------------|---------------------|
E|---------------------------|---------------------|---------------------|

e|-----------------------|----------------8b10--|-15~~-------|-----------8-------|
B|-----------------------|-quiet------/10-------|------------|-6-8b9-------8b9r8-|
G|----------5------------|----------------------|------------|-------------------|
D|-h7~------5h7p5--3h5p3-|-5h7------------------|------------|-------------------|
A|-----------------------|----------------------|------------|-------------------|
E|-----------------------|----------------------|------------|-------------------|

e|--------------------------17b18~----17-----------|
B|-6---------------------18--------------18-18~~---|
G|--------------------17---------------------------|
D|-------------15-/19------------------------------|
A|----------15-------------------------------------|
E|-------13----------------------------------------|


Key
| /  slide up
| \  slide down
| h  hammer-on
| p  pull-off
| ~  vibrato
| x  Mute note
| b  bend note
| r  release bend 
            
Hard to play? Try these video lessons and learn fast. | Correct




comments powered by Disqus
↑ Back to top | Tablatures and chords are parodies/interpretations of the original songs. You may use it for private study, scholarship, research or language learning purposes only