» » »

Kaki King, You Dont Have To Be Afraid Tabs (ver.1)

Artists:  A B C D E F G H I J K L M N O P Q R S T U V W X Y Z # 

You Dont Have To Be Afraid Tabs (ver.1)

Kaki King Tabs
 Rating:
4/5 (4 votes)
You Dont Have To Be Afraid lessons Tabs too difficult? Try these video lessons and learn fast
                Alright, I could not find a tab for this beautiful song anywhere, so I decided to make
myself.  A song like this is too complex to tab the whole thing out in detail, so I will
that you can embellish the chords that I give you.  I tabbed in standard tuning.  If you 

;=change of chords

Part 1:  x2  (This is the part she sings over)

Uses basic chords  C, Am, Em.

e|--------------;--------------;---------------------------------------------|
B|---3--3--3--1--------1--------------0--------------0-----------------------|
G|-----------------2------2--------0-----0---0---0------0---0----------------|
D|---------------------------2-----------------------------------------------|
A|-3--3--3--3----0---0--0--0-------------------------------------------------|
E|------------------------------0---0---0--0---0--0---0---0------------------|

Part 2:  Play around with pattern  (Eb?, Cm, G#, Cm)

e|-------------------;-------------------;----------------;---------------------|
B|---------4------------------4------------------4-----------------4------------|
G|----0--------0---5------5-------5----------5------5----------5-------5---5----|
D|-------------------------------------5---------------5------------------------|
A|-6----6----6---6------3---3--3-----3----------------------3----3---3---3------|
E|----------------------------------------4----4--4--4--------------------------|

Chords used.

C x32010
Am x02210
Em 022000
Eb? x6504x
Cm x35543
G#  466544

Lyrics:
You don't have to be afraid of the pain inside you
            
Submit corrections

comments powered by Disqus
↑ Back to top | Kaki King Tabs for You Dont Have To Be Afraid. Lyrics for acoustic guitar and electric guitar. Tablatures and chords are parodies/interpretations of the original songs. You may use it for private study, scholarship, research or language learning purposes only