>
 >
Yellowcake

Yellowcake Guitar Tabs

Kaki King - Yellowcake chords, tabs, tablatures, lyrics

Guitar lessons | Add/correct | Request | Top 50 tabs Artists:  A B C D E F G H I J K L M N O P Q R S T U V W X Y Z 0-9

Yellowcake Guitar Tabs – Kaki King

CD, Sheet music, Poster

Do you like Yellowcake? Share with your friends now
Tabs
-------------------------------------------------------------------------------
-------------------------------------------------------------------------------

Tuning: Eb-F#-C#-F-Bb-F


Intro

e|--------------------------------------------------------|
B|---3----5----7-------7----7-------7----7-------7--------|
G|-----0----0------0-----0------0-----0------0-----0------|
D|---------------0---0--------0---0--------0---0----------|
A|---4----6----7------------7------------7----------------|
E|--------------------------------------------------------|

e|------------------------------------------------------------------|
B|---3----5----7-------7----7-------7----8-------8----7-------7-----|
G|-----0----0------0-----0------0-----0------0-----0------0-----0---|
D|---------------0---0--------0---0--------0---0--------0---0-------|
A|---4----6----7------------7------------9------------7-------------|
E|------------------------------------------------------------------|

e|----------------------------------------------------------------------------------|
B|---5----7----3----5----7-------7----7x-5x--3-------3----3-------3----3-------3----|
G|-----0----0----0----0------0-----0-------------0-----0------0-----0------0-----0--|
D|-------------------------0---0---------------0---0--------0---0--------0---0------|
A|---6----7----4----6----7------------7x-6x--4------------4------------4------------|
E|----------------------------------------------------------------------------------|

Verse

e|--------------------------------------------------------|
B|---3----5----7-------7----7-------7----7-------7--------|
G|-----0----0------0-----0------0-----0------0-----0------|
D|---------------0---0--------0---0--------0---0----------|
A|---4----6----7------------7------------7----------------|
E|--------------------------------------------------------|

e|------------------------------------------------------------------|
B|---3----5----7-------7----7-------7----8-------8----7-------7-----|
G|-----0----0------0-----0------0-----0------0-----0------0-----0---|
D|---------------0---0--------0---0--------0---0--------0---0-------|
A|---4----6----7------------7------------9------------7-------------|
E|------------------------------------------------------------------|

e|-------------------------------------------------------0-----------------------0~--------|
B|---5----7----3----5----7-------7----7x-5x--------0h3p0---3-0-------------0--0~---3~------|
G|-----0----0----0----0------0-----0-------------0-------------0-------0-3----3~-----3~----|
D|-------------------------0---0---------------0-----------------0---0--------0~-------0~--|
A|---6----7----4----6----7------------7x-6x--4---------------------0----------2~-----------|
E|-----------------------------------------------------------------------------------------|

Chorus (repeat 2x)

e|---------------------------------------------------------------------|
B|---3-------3----3-------3----3-------3----3-------3----3-------3-----|
G|-------0-----0------0-----0------0-----0------0-----0------0-----0---|
D|-----0---0--------0---0--------0---0--------0---0--------0---0-------|
A|---2------------2------------2------------2------------0-------------|
E|---------------------------------------------------------------------|

e|-------------------------------------------|
B|---3-------3----5-------5----5-------5-----|
G|-------0-----0------0-----0------0-----0---|
D|-----0---0--------0---0--------0---0-------|
A|---0------------6------------6-------------|
E|-------------------------------------------|

Verse

e|--------------------------------------------------------|
B|---3----5----7-------7----7-------7----7-------7--------|
G|-----0----0------0-----0------0-----0------0-----0------|
D|---------------0---0--------0---0--------0---0----------|
A|---4----6----7------------7------------7----------------|
E|--------------------------------------------------------|

e|------------------------------------------------------------------|
B|---3----5----7-------7----7-------7----8-------8----7-------7-----|
G|-----0----0------0-----0------0-----0------0-----0------0-----0---|
D|---------------0---0--------0---0--------0---0--------0---0-------|
A|---4----6----7------------7------------9------------7-------------|
E|------------------------------------------------------------------|

e|-------------------------------------------------------0-----------------------0~--------|
B|---5----7----3----5----7-------7----7x-5x--------0h3p0---3-0-------------0--0~---3~------|
G|-----0----0----0----0------0-----0-------------0-------------0-------0-3----3~-----3~----|
D|-------------------------0---0---------------0-----------------0---0--------0~-------0~--|
A|---6----7----4----6----7------------7x-6x--4---------------------0----------2~-----------|
E|-----------------------------------------------------------------------------------------|

Chorus (repeat 2x)

e|---------------------------------------------------------------------|
B|---3-------3----3-------3----3-------3----3-------3----3-------3-----|
G|-------0-----0------0-----0------0-----0------0-----0------0-----0---|
D|-----0---0--------0---0--------0---0--------0---0--------0---0-------|
A|---2------------2------------2------------2------------0-------------|
E|---------------------------------------------------------------------|

e|-------------------------------------------|
B|---3-------3----5-------5----5-------5-----|
G|-------0-----0------0-----0------0-----0---|
D|-----0---0--------0---0--------0---0-------|
A|---0------------6------------6-------------|
E|-------------------------------------------|

Bridge

e|--------------------------------------------------------|
B|---3----5----7-------7----7-------7----7-------7--------|
G|-----0----0------0-----0------0-----0------0-----0------|
D|---------------0---0--------0---0--------0---0----------|
A|---4----6----7------------7------------7----------------|
E|--------------------------------------------------------|

e|------------------------------------------------------------------|
B|---3----5----7-------7----7-------7----8-------8----7-------7-----|
G|-----0----0------0-----0------0-----0------0-----0------0-----0---|
D|---------------0---0--------0---0--------0---0--------0---0-------|
A|---4----6----7------------7------------9------------7-------------|
E|------------------------------------------------------------------|

e|-------------------------------------------------------------------|
B|---5----7----3----5----7-------7----7x-5x--3-------3----3----2-----|
G|-----0----0----0----0------0-----0-------------0-----0----0----0---|
D|-------------------------0---0---------------0---0-----------------|
A|---6----7----4----6----7------------7x-6x--4------------4----2-----|
E|-------------------------------------------------------------------|

 (repeat 8x)
e|-----------------------------------------------------   |
B|---0-------0----0~---2~---3-------3----7-------7-----  o|
G|-------0-----0----0----0------0-----0------0-----0---   |
D|-----0---0------------------0---0--------0---0-------   |
A|---0------------0~---2~---4------------7-------------  o|
E|-----------------------------------------------------   |

e|-------------------------------------------|
B|---5-------5----5-------5----5-------5-----|
G|-------0-----0------0-----0------0-----0---|
D|-----0---0--------0---0--------0---0-------|
A|---6------------6------------6-------------|
E|-------------------------------------------|

Outro

e|------------------------------------------------------------------|
B|---3----5----7-------7----7-------7----8-------8----7-------7-----|
G|-----0----0------0-----0------0-----0------0-----0------0-----0---|
D|---------------0---0--------0---0--------0---0--------0---0-------|
A|---4----6----7------------7------------9------------7-------------|
E|------------------------------------------------------------------|

e|--------------------------------------------|
B|---5----7----3----5----7-------7----7x-5x---|
G|-----0----0----0----0------0-----0----------|
D|-------------------------0---0--------------|
A|---6----7----4----6----7------------7x-6x---|
E|--------------------------------------------|

 (repeat 3x)
e|------------------------------------------------|   |
B|---3-------3----3----5----7-------7----7x--5x---|  o|
G|-------0-----0----0----0------0-----0-----------|   |
D|-----0---0------------------0---0---------------|   |
A|---4------------4----6----7------------7x--6x---|  o|
E|------------------------------------------------|   |

e|-------------------------------------|
B|---3-------3----3----2----------0~---|
G|-------0-----0----0----0------0~-----|
D|-----0---0------------------0~-------|
A|---4------------4----2----0~---------|
E|-------------------------------------|


************************************

| /   slide up
| \   slide down
| h   hammer-on
| p   pull-off
| ~   vibrato
| +   harmonic
| x   Mute note
| b   Bend
| pb  Pre-bend
| br  Bend release
| pbr Pre-bend release
| brb Bend release bend

************************************





Comments


Popular Kaki King tabs & chords
Gay Sons Of Lesbian Mothers Bass Tabs
Ahuvati Tabs
Close Your Eyes And Youll Burst Into Flames Tabs
Gay Sons Of Lesbian Mothers 1 Tabs
I Never Said I Love You Tabs
Night After Sidewalk Tabs
Night After Sidewalk 1 Tabs
Playing With Pink Noise Tabs
Ritual Dance 2 Tabs
Ritual Dance 3 Tabs


Song lyrics



↑ Back to top | Tablatures and chords are parodies/interpretations of the original songs. You may use it for private study, scholarship, research or language learning purposes only
© 2014 AZChords.com Contact us | Privacy policy | DMCA | Add/correct tabs | Request tabs | Top 50 tabs