» » »

Pull Me Out Alive Tabs (ver.1)

Artists:  A B C D E F G H I J K L M N O P Q R S T U V W X Y Z # 

Pull Me Out Alive Tabs (ver.1)

Kaki King
Rating:
4/5 (1 vote)

Hard to play? Try these video lessons and learn fast.
                -----------------------------------------------------------------------------
                             Pull Me Out Alive by Kaki King
-----------------------------------------------------------------------------
Tuning: B b c# f# b c#

Intro:
e|-----------------------------------------------------------------|
B|-----------------------------------------------------------------|
G|-----------------------------------------------------------------|
D|-9-9-9-9-9-9-9-9-9-9-9-9-9-9-9-9-9-9-9-9-9-9-9-9-9-9-9-9-9-9-9-9-|
A|-7-7-7-7-7-7-7-7-7-7-7-7-7-7-7-7-7-7-7-7-7-7-7-7-7-7-7-7-7-7-7-7-|
E|-7-7-7-7-7-7-7-7-7-7-7-7-7-7-7-7-7-7-7-7-7-7-7-7-7-7-7-7-7-7-7-7-|
  pm...............................................................

Verse 1:
e|-------------------------------------------------------------------------------|
B|-------------------------------------------------------------------------------|
G|-------------------------------------------------------------------------------|
D|9-9-9-9-9-9-9-9-7-7-7-7-7-7-7-7-12-12-12-12-12-12-12-12-12-12-12-12-12-12-12-12|x2
A|7-7-7-7-7-7-7-7-5-5-5-5-5-5-5-5-10-10-10-10-10-10-10-10-10-10-10-10-10-10-10-10|
E|7-7-7-7-7-7-7-7-5-5-5-5-5-5-5-5-10-10-10-10-10-10-10-10-10-10-10-10-10-10-10-10|
  pm.............................................................................

e|-------------------------------------------------------------------------|
B|-------------------------------------------------------------------------|
G|-------------------------------------------------------------------------|
D|-9-9-9-9-9-9-9-9-7-7-7-7-7-7-7-7-12-12-12-12-12-12-12-12-5-5-5-5-5-5-5-5-|
A|-7-7-7-7-7-7-7-7-5-5-5-5-5-5-5-5-10-10-10-10-10-10-10-10-3-3-3-3-3-3-3-3-|
E|-7-7-7-7-7-7-7-7-5-5-5-5-5-5-5-5-10-10-10-10-10-10-10-10-3-3-3-3-3-3-3-3-|
  pm......................................................................

e|--------------------------------------------------------------------|
B|--------------------------------------------------------------------|
G|--------------------------------------------------------------------|
D|-9-9-9-9-9-9-9-9-7-7-7-7-7-7-7-7-12-12-12-12-12-12-12-12---5-5--5-5-|
A|-7-7-7-7-7-7-7-7-5-5-5-5-5-5-5-5-10-10-10-10-10-10-10-10---3-3--3-3-|
E|-7-7-7-7-7-7-7-7-5-5-5-5-5-5-5-5-10-10-10-10-10-10-10-10---3-3--3-3-|
  pm......................................................

Chorus:
e|---------------------------------------------|
B|---------------------------------------------|
G|---------------------------------------------|
D|-2-22-2-4x5-555-7x9-9999/-12-1212\-9-99-7-77-|x4
A|-0-00-0-2x3-333-5x7-7777/-10-1010\-7-77-5-55-|
E|-0-00-0-2x3-333-5x7-7777/-10-1010\-7-77-5-55-|

Verse 2:
e|-------------------------------------------------------------------------|
B|-------------------------------------------------------------------------|
G|-------------------------------------------------------------------------|
D|-9-9-9-9-9-9-9-9-7-7-7-7-7-7-7-7-12-12-12-12-12-12-12-12-5-5-5-5-5-5-5-5-|x3
A|-7-7-7-7-7-7-7-7-5-5-5-5-5-5-5-5-10-10-10-10-10-10-10-10-3-3-3-3-3-3-3-3-|
E|-7-7-7-7-7-7-7-7-5-5-5-5-5-5-5-5-10-10-10-10-10-10-10-10-3-3-3-3-3-3-3-3-|
  pm......................................................................

e|--------------------------------------------------------------------|
B|--------------------------------------------------------------------|
G|--------------------------------------------------------------------|
D|-9-9-9-9-9-9-9-9-7-7-7-7-7-7-7-7-12-12-12-12-12-12-12-12---5-5--5-5-|
A|-7-7-7-7-7-7-7-7-5-5-5-5-5-5-5-5-10-10-10-10-10-10-10-10---3-3--3-3-|
E|-7-7-7-7-7-7-7-7-5-5-5-5-5-5-5-5-10-10-10-10-10-10-10-10---3-3--3-3-|
  pm......................................................

Chorus 2:
e|---------------------------------------------|
B|---------------------------------------------|
G|---------------------------------------------|
D|-2-22-2-4x5-555-7x9-9999/-12-1212\-9-99-7-77-|x4
A|-0-00-0-2x3-333-5x7-7777/-10-1010\-7-77-5-55-|
E|-0-00-0-2x3-333-5x7-7777/-10-1010\-7-77-5-55-|

Post Chorus:
e|------------------------------------|
B|------------------------------------|
G|------------------------------------|
D|-17-1717-x-12-1212-x-12-1212-x-9-99-|x4
A|-15-1515-x-10-1010-x-12-1212-x-7-77-|
E|-15-1515-x-10-1010-x-12-1212-x-7-77-|

Bridge: 
e|------------------1010-x-10-1010-x-10-1010-x-10-1010-|
B|------------------1212-x-12-1212-x-12-1212-x-12-1212-|
G|------------------1212-x-12-1212-x-12-1212-x-12-1212-|
D|-3-33333-5-55555--1212-x-12-1212-x-12-1212-x-12-1212-|x3
A|-3-33333-5-55555-------------------------------------|
E|-3-33333-5-55555-------------------------------------|

e|-----------------------------------------------------|
B|-----------------------------------------------------|
G|-----------------------------------------------------|
D|-3-33333---------------------------------------------|
A|-3-33333---------------------------------------------|
E|-3-33333---------------------------------------------|

Chorus 3:
e|---------------------------------------------|
B|---------------------------------------------|
G|---------------------------------------------|
D|-2-22-2-4x5-555-7x9-9999/-12-1212\-9-99-7-77-|x4
A|-0-00-0-2x3-333-5x7-7777/-10-1010\-7-77-5-55-|
E|-0-00-0-2x3-333-5x7-7777/-10-1010\-7-77-5-55-|

Post Chorus 2:
e|------------------------------------|
B|------------------------------------|
G|------------------------------------|
D|-17-1717-x-12-1212-x-12-1212-x-9-99-|x7
A|-15-1515-x-10-1010-x-12-1212-x-7-77-|
E|-15-1515-x-10-1010-x-12-1212-x-7-77-|

e|------------------------------------|
B|------------------------------------|
G|------------------------------------|
D|-17-1717-x-12-1212-x-12-1212-x-9-9--|
A|-15-1515-x-10-1010-x-12-1212-x-7-7--|
E|-15-1515-x-10-1010-x-12-1212-x-7-7--|

************************************
pm.   palm mute
| /   slide up
| \   slide down
| h   hammer-on
| p   pull-off
| ~   vibrato
| +   harmonic
| x   Mute note
| b   Bend
| pb  Pre-bend
| br  Bend release
| pbr Pre-bend release
| brb Bend release bend

************************************
            
Hard to play? Try these video lessons and learn fast. | Correct




comments powered by Disqus
↑ Back to top | Tablatures and chords are parodies/interpretations of the original songs. You may use it for private study, scholarship, research or language learning purposes only