» » »

Kaki King, Bone Chaos In The Castle Bass tabs (ver.1)

Artists:  A B C D E F G H I J K L M N O P Q R S T U V W X Y Z # 

Bone Chaos In The Castle Bass tabs (ver.1)

Kaki King Tabs
Rating:
0/5 (0 votes)
Bone Chaos In The Castle lessons Tabs too difficult? Try these video lessons and learn fast
                Standard Tuning
*NOTE* Stuff on the G string is optional, it sounds good though.  It very well 
may be a guitar piece

Part I 
G|--9h11----9h11----9h11---9h11--|
D|8----------------8-------------|
A|-------------------------------|
E|--------9---------------9------|

Part II   (only play the 2nd half the first time this part comes up)
G|-------------------------------|---9h11----9h11-----9h11----9h10-----------|
D|-------8-----------------8-----|-8---------------8-----------------8-------|
A|8-8-11---4-4-6-6-8-8-11----4-3r|--------------------------------------9----|
E|-------------------------------|---------9----------------9---------------9|

Order

Part I (1x) - (0:00 - 0:46)
Part II (1x) - (0:46 - 1:02)
Part I (9x)  - (1:03 - 1:23)
Part II (1x) - (1:24 - 1:33)
**this time without the 2nd half**
Part I (10x) - (1:34 - 2:28)
End
            
Submit corrections

comments powered by Disqus
↑ Back to top | Kaki King Bass for Bone Chaos In The Castle. Lyrics for acoustic guitar and electric guitar. Tablatures and chords are parodies/interpretations of the original songs. You may use it for private study, scholarship, research or language learning purposes only