» » »

Bari Improv Tabs (ver.3)

Artists:  A B C D E F G H I J K L M N O P Q R S T U V W X Y Z # 

Bari Improv Tabs (ver.3)

Kaki King
Rating:
0/5 (0 votes)

Hard to play? Try these video lessons and learn fast.
                I figured this out, but was too lazy to tab it out until now.  So, here it is!

Tuning -

How they play it - (low pitch to high pitch)  DADGCC

How you can play it - (low pitch to high pitch)   DADGCe

Either one realy works, you don't really hit the highest string too much.

You don't strum at all in this song, its all by hitting the guitar either on the fret or 
the bridge.

Theres tons of delay on this.


C||---------|------------------|---------------|---------------|
C||--0------|-(0)--------------|-0--0-0---0-0--|-0--0-0---0-0--|
G||--0------|-(0)--------------|-0--0-0---0-0--|-0--0-0---0-0--|
D||--0------|-(0)--<12>--<7>---|-0--0-0---0-0--|-0--0-0---0-0--|
A||--0------|-(0)--<12>--<7>---|-0--0-0---0-0--|-0--0-0---0-0--|
D||--0------|-(0)--<12>--<7>---|-0--0-0---0-0--|-0--0-0---0-0--|

The harmonics here are done by tapping the guitar 12 frets up on the neck while holding 
frets shown here.

C|-----------------|
C|-------------<0>-|
G|---------<0>-----|  This is the main riff of this song.  With these addons
D|-----<2>---------|  in between these riffs.
A|-<3>-------------|
D|-----------------|


Input 1:

C|------------------------------------------------|
C|------------------------------------------------|
G|------------------------------------------------|
D|---7p0---7----7p0---7----9p0---9----9p0---9-----|
A|-3-----3----3-----3----5-----5----5-----5---p0--|
D|-3-----3----3-----3----5-----5----5-----5---p0--|


Input 2:

C|-------------------------|---------------------------------------|
C|-------------------------|----------------------------------<7>--|
G|-------------------------|-9p0-9p0-9p0-9p0-9p0------<7>----------|
D|-7p0-7p0-7p0-7p0-7p0-7p0-|-9p0-9p0-9p0-9p0-9p0--<7>-----<7>------|
A|-------------------------|---------------------------------------|
D|-------------------------|---------------------------------------|
            
Hard to play? Try these video lessons and learn fast. | Correct




comments powered by Disqus
↑ Back to top | Tablatures and chords are parodies/interpretations of the original songs. You may use it for private study, scholarship, research or language learning purposes only