» » »

Kaki King, Ahuvati Tabs (ver.1)

Artists:  A B C D E F G H I J K L M N O P Q R S T U V W X Y Z # 

Ahuvati Tabs (ver.1)

Kaki King Tabs
 Rating:
4.4/5 (7 votes)
Ahuvati lessons Tabs too difficult? Try these video lessons and learn fast
1
                -------------------------------------------------------------------------------
-------------------------------------------------------------------------------

Tuning: CGDFAD

This song is mostly finger technique.  The left hand varies very 
little throughout the song.  She uses time very loosely so listen for 
the quick pick up and slow downs in tempo.  Later in the song she 
also doubles up the strumming on a few strings which can be difficult 
to get right.  

D|--0-----0-----0-----0-----0-----0-----0-----0-----0-----0-----0-----0-------|
A|----0-----0-----0-----0-----0-----0-----0-----0-----0-----0-----0-----0-----|
F|------------------0-----------------------------------0---------------------|
D|------------9-----------9-----------------------9-----------9---------------|
G|------7-----------------------7-----------7-----------------------7---------|
C|7-----------------------------------7---------------------------------------|

D|--0-----0-----0-----0-----0-----0-----0-----0-----0-----0-----0------0-----|
A|----0-----0-----0-----0-----0-----0-----0-----0-----0-----0-----0------0---|
F|------------------0-----------------------------------0--------------------|
D|------------7-----------7-----------------------7-----------7--------------|
G|------5-----------------------5-----------5------------------------5-------|
C|5-----------------------------------5--------------------------------------|

D|--0-----0-----0-----0-----0-----0-----0-----0-----0-----0-----0-----0-------|
A|----0-----0-----0-----0-----0-----0-----0-----0-----0-----0-----0-----0-----|
F|------------------0-----------------------------------0---------------------|
D|------------9-----------9-----------------------9-----------9---------------|
G|------7-----------------------7-----------7-----------------------7---------|
C|7-----------------------------------7---------------------------------------|

D|--0-----0-----0-----0-----0-----0-----0-----0-----0-----0-----0------0-----|
A|----0-----0-----0-----0-----0-----0-----0-----0-----0-----0-----0------0---|
F|------------------0-----------------------------------0--------------------|
D|------------7-----------7-----------------------7-----------7--------------|
G|------5-----------------------5-----------5------------------------5-------|
C|5-----------------------------------5--------------------------------------|

D|--0-----0-----0-----0-----0-----0-----0-----0-----0-----0-----0------0-----|
A|----0-----0-----0-----0-----0-----0-----0-----0-----0-----0-----0------0---|
F|------------------0-----------------------------------0--------------------|
D|------------5-----------5-----------------------5-----------5--------------|
G|------3-----------------------3-----------3------------------------3-------|
C|3-----------------------------------3--------------------------------------|

D|--0-----0-----0-----0-----0-----0-----0-----0-----0-----0-----0------0-----|
A|----0-----0-----0-----0-----0-----0-----0-----0-----0-----0-----0------0---|
F|------------------2-----------------------------------2--------------------|
D|------------3-----------3-----------------------3-----------3--------------|
G|------2-----------------------2-----------2------------------------2-------|
C|2-----------------------------------2--------------------------------------|

D|--0-----0-----0-----0-----0-----0-----0-----0-----0-----0-----0-----0-------|
A|----0-----0-----0-----0-----0-----0-----0-----0-----0-----0-----0-----0-----|
F|------------------0-----------------------------------0---------------------|
D|------------9-----------9-----------------------9-----------9---------------|
G|------7-----------------------7-----------7-----------------------7---------|
C|7-----------------------------------7---------------------------------------|

D|--0-----0-----0-----0-----0-----0-----0-----0-----0-----0-----0------0-----|
A|----0-----0-----0-----0-----0-----0-----0-----0-----0-----0-----0------0---|
F|------------------0-----------------------------------0--------------------|
D|------------7-----------7-----------------------7-----------7--------------|
G|------5-----------------------5-----------5------------------------5-------|
C|5-----------------------------------5--------------------------------------|

D|--0-----0-----0-----0-----0-----0-----0-----0-----0-----0-----0-----0-------|
A|----0-----0-----0-----0-----0-----0-----0-----0-----0-----0-----0-----0-----|
F|------------------0-----------------------------------0---------------------|
D|------------9-----------9-----------------------9-----------9---------------|
G|------7-----------------------7-----------7-----------------------7---------|
C|7-----------------------------------7---------------------------------------|

D|--0-----0-----0-----0-----0-----0-----0-----0-----0-----0-----0------0-----|
A|----0-----0-----0-----0-----0-----0-----0-----0-----0-----0-----0------0---|
F|------------------0-----------------------------------0--------------------|
D|------------7-----------7-----------------------7-----------7--------------|
G|------5-----------------------5-----------5------------------------5-------|
C|5-----------------------------------5--------------------------------------|

D|--0-----0-----0-----0-----0-----0-----0-----0-----0-----0-----0------0-----|
A|----0-----0-----0-----0-----0-----0-----0-----0-----0-----0-----0------0---|
F|------------------0-----------------------------------0--------------------|
D|------------5-----------5-----------------------5-----------5--------------|
G|------3-----------------------3-----------3------------------------3-------|
C|3-----------------------------------3--------------------------------------|

D|--0-----0-----0-----0-----0-----0-----0-----0-----0-----0-----0------0-----|
A|----0-----0-----0-----0-----0-----0-----0-----0-----0-----0-----0------0---|
F|------------------2-----------------------------------2--------------------|
D|------------3-----------3-----------------------3-----------3--------------|
G|------2-----------------------2-----------2------------------------2-------|
C|2-----------------------------------2--------------------------------------|

 1:06

D|--1-----1-----1-----1-----1-----1-----1----1-----1-----1-----1-----1-------|
A|----3-----3-----3-3---3-----3-----3-----3----3-----3-3---3-----3-----3-----|
F|------------2-----------2----------------------2-----------2---------------|
D|------3-----------------------3-----------3----------------------3---------|
G|---------------------------------------------------------------------------|
C|0-----------------------------------0--------------------------------------|

D|--8-----8----8-------8------8------8-----8------8-----8------8------8-----8---|
A|---10----10----10-10---10-----10-----10----10----10----10-10---10-----10----10|
F|------------9-------------9-------------------------9-------------9-----------|
D|-----10--------------------------10----------10-------------------------10----|
G|0---------------------------------------0-------------------------------------|
C|------------------------------------------------------------------------------|

D|--1-----1-----1-----1-----1-----1-----1----1-----1-----1-----1-----1-------|
A|----3-----3-----3-3---3-----3-----3-----3----3-----3-3---3-----3-----3-----|
F|------------2-----------2----------------------2-----------2---------------|
D|------3-----------------------3-----------3----------------------3---------|
G|---------------------------------------------------------------------------|
C|0-----------------------------------0--------------------------------------|

D|--8-----8----8-------8------8------8-----8------8-----8------8------8-----8---|
A|---10----10----10-10---10-----10-----10----10----10----10-10---10-----10----10|
F|------------9-------------9-------------------------9-------------9-----------|
D|-----10--------------------------10----------10-------------------------10----|
G|0---------------------------------------0-------------------------------------|
C|------------------------------------------------------------------------------|

 1:25

D|--0-----0-----0-----0-----0-----0-----0----0-----0-----0-----0-----0-------|
A|----3-----3-----3-3---3-----3-----3-----3----3-----3-3---3-----3-----3-----|
F|------------3-----------3----------------------3-----------3---------------|
D|------0-----------------------0-----------0----------------------0---------|
G|---------------------------------------------------------------------------|
C|3-----------------------------------3--------------------------------------|

D|--0-----0-----0-----0-----0-----0-----0----0-----0-----0-----0-----0-------|
A|----2-----2-----2-2---2-----2-----2-----2----2-----2-2---2-----2-----2-----|
F|------------2-----------2----------------------2-----------2---------------|
D|------0-----------------------0-----------0----------------------0---------|
G|---------------------------------------------------------------------------|
C|2-----------------------------------2--------------------------------------|

D|--0-----0-----0-----0-----0-----0-----0-----0-----0-----0-----0-----0-------|
A|----0-----0-----0-----0-----0-----0-----0-----0-----0-----0-----0-----0-----|
F|------------------0-----------------------------------0---------------------|
D|------------9-----------9-----------------------9-----------9---------------|
G|------7-----------------------7-----------7-----------------------7---------|
C|7-----------------------------------7---------------------------------------|

D|--0-----0-----0-----0-----0-----0-----0-----0-----0-----0-----0------0-----|
A|----0-----0-----0-----0-----0-----0-----0-----0-----0-----0-----0------0---|
F|------------------0-----------------------------------0--------------------|
D|------------7-----------7-----------------------7-----------7--------------|
G|------5-----------------------5-----------5------------------------5-------|
C|5-----------------------------------5--------------------------------------|

D|--0-----0-----0-----0-----0-----0-----0-----0-----0-----0-----0-----0-------|
A|----0-----0-----0-----0-----0-----0-----0-----0-----0-----0-----0-----0-----|
F|------------------0-----------------------------------0---------------------|
D|------------9-----------9-----------------------12-----------12-------------|
G|------7-----------------------7-----------10-----------------------10-------|
C|7-----------------------------------10--------------------------------------|

D|--0-----0-----0-----0-----0-----0-----0-----0-----0-----0-----0------0-----|
A|----0-----0-----0-----0-----0-----0-----0-----0-----0-----0-----0------0---|
F|------------------0-----------------------------------0--------------------|
D|------------7-----------7-----------------------7-----------7--------------|
G|------5-----------------------5-----------5------------------------5-------|
C|5-----------------------------------5--------------------------------------|

D|--0-----0-----0-----0-----0-----0-----0-----0-----0-----0-----0-----0-------|
A|----0-----0-----0-----0-----0-----0-----0-----0-----0-----0-----0-----0-----|
F|------------------0-----------------------------------0---------------------|
D|------------9-----------9-----------------------9------------9--------------|
G|------7-----------------------7-----------7-----------------------7---------|
C|7-----------------------------------8--------------------------------------|

D|--0-----0-----0-----0-----0-----0-----0-----0-----0-----0-----0------0-----|
A|----0-----0-----0-----0-----0-----0-----0-----0-----0-----0-----0------0---|
F|------------------0-----------------------------------0--------------------|
D|-----------10----------10-----------------------7-----------7--------------|
G|------9-----------------------9-----------5------------------------5-------|
C|9-----------------------------------5--------------------------------------|

 2:05

D|--0-----0-----0-----0-----0-----0-----0-----0-----0-----0-----0------0-----|
A|----0-----0-----0-----0-----0-----0-----0-----0-----0-----0-----0------0---|
F|------------------0-----------------------------------0--------------------|
D|------------5-----------5-----------------------5-----------5--------------|
G|------3-----------------------3-----------3------------------------3-------|
C|3-----------------------------------3--------------------------------------|

D|--0-----0-----0-----0-----0-----0-----0-----0-----0-----0-----0------0-----|
A|----0-----0-----0-----0-----0-----0-----0-----0-----0-----0-----0------0---|
F|------------------2-----------------------------------2--------------------|
D|------------3-----------3-----------------------3-----------3--------------|
G|------2-----------------------2-----------2------------------------2-------|
C|2-----------------------------------2--------------------------------------|

D|--1-----1-----1-----1-----1-----1-----1----1-----1-----1-----1-----1-------|
A|----3-----3-----3-3---3-----3-----3-----3----3-----3-3---3-----3-----3-----|
F|------------2-----------2----------------------2-----------2---------------|
D|------3-----------------------3-----------3----------------------3---------|
G|---------------------------------------------------------------------------|
C|0-----------------------------------0--------------------------------------|

D|--8-----8----8-------8------8------8-----8------8-----8------8------8-----8---|
A|---10----10----10-10---10-----10-----10----10----10----10-10---10-----10----10|
F|------------9-------------9-------------------------9-------------9-----------|
D|-----10--------------------------10----------10-------------------------10----|
G|0---------------------------------------0-------------------------------------|
C|------------------------------------------------------------------------------|

D|--1-----1-----1-----1-----1-----1-----1----1-----1-----1-----1-----1-------|
A|----3-----3-----3-3---3-----3-----3-----3----3-----3-3---3-----3-----3-----|
F|------------2-----------2----------------------2-----------2---------------|
D|------3-----------------------3-----------3----------------------3---------|
G|---------------------------------------------------------------------------|
C|0-----------------------------------0--------------------------------------|

D|--8-----8----8-------8------8------8-----8------8-----8------8------8-----8---|
A|---10----10----10-10---10-----10-----10----10----10----10-10---10-----10----10|
F|------------9-------------9-------------------------9-------------9-----------|
D|-----10--------------------------10----------10-------------------------10----|
G|0---------------------------------------0-------------------------------------|
C|------------------------------------------------------------------------------|

D|--0-----0-----0-----0-----0-----0-----0----0-----0-----0-----0-----0-------|
A|----3-----3-----3-3---3-----3-----3-----3----3-----3-3---3-----3-----3-----|
F|------------3-----------3----------------------3-----------3---------------|
D|------0-----------------------0-----------0----------------------0---------|
G|---------------------------------------------------------------------------|
C|3-----------------------------------3--------------------------------------|

D|--0-----0-----0-----0-----0-----0-----0----0-----0-----0-----0-----0-------|
A|----2-----2-----2-2---2-----2-----2-----2----2-----2-2---2-----2-----2-----|
F|------------2-----------2----------------------2-----------2---------------|
D|------0-----------------------0-----------0----------------------0---------|
G|---------------------------------------------------------------------------|
C|2-----------------------------------2--------------------------------------|

 2:43

D|--0-----0-----0-----0-----0-----0-----0-----0-----0-----0-----0-----0-------|
A|----0-----0-----0-----0-----0-----0-----0-----0-----0-----0-----0-----0-----|
F|------------------0-----------------------------------0---------------------|
D|------------9-----------9-----------------------9-----------9---------------|
G|------7-----------------------7-----------7-----------------------7---------|
C|7-----------------------------------7---------------------------------------|

D|--0-----0-----0-----0-----0-----0-----0-----0-----0-----0-----0------0-----|
A|----0-----0-----0-----0-----0-----0-----0-----0-----0-----0-----0------0---|
F|------------------0-----------------------------------0--------------------|
D|------------7-----------7-----------------------7-----------7--------------|
G|------5-----------------------5-----------5------------------------5-------|
C|5-----------------------------------5--------------------------------------|

D|--0-----0-----0-----0-----0-----0-----0-----0-----0-----0-----0-----0-------|
A|----0-----0-----0-----0-----0-----0-----0-----0-----0-----0-----0-----0-----|
F|------------------0-----------------------------------0---------------------|
D|------------9-----------9-----------------------14-----------14-------------|
G|------7-----------------------7-----------12-----------------------12-------|
C|7-----------------------------------12--------------------------------------|

D|--0-----0-----0-----0-----0-----0-----0-----0-----0-----0-----0------0-----|
A|----0-----0-----0-----0-----0-----0-----0-----0-----0-----0-----0------0---|
F|------------------0-----------------------------------0--------------------|
D|------------7-----------7-----------------------7-----------7--------------|
G|------5-----------------------5-----------5------------------------5-------|
C|5-----------------------------------5--------------------------------------|

D|--0-----0-----0-----0-----0-----0-----0-----0-----0-----0-----0-----0-------|
A|----0-----0-----0-----0-----0-----0-----0-----0-----0-----0-----0-----0-----|
F|------------------0-----------------------------------0---------------------|
D|------------9-----------9-----------------------9------------9--------------|
G|------7-----------------------7-----------7-----------------------7---------|
C|7-----------------------------------8--------------------------------------|

D|--0-----0-----0-----0-----0-----0-----0-----0-----0-----0-----0------0-----|
A|----0-----0-----0-----0-----0-----0-----0-----0-----0-----0-----0------0---|
F|------------------0-----------------------------------0--------------------|
D|-----------10----------10-----------------------7-----------7--------------|
G|------9-----------------------9-----------5------------------------5-------|
C|9-----------------------------------5--------------------------------------|

D|--0-----0-----0-----0-----0-----0-----0-----0-----0-----0-----0------0-----|
A|----0-----0-----0-----0-----0-----0-----0-----0-----0-----0-----0------0---|
F|------------------0-----------------------------------0--------------------|
D|------------5-----------5-----------------------5-----------5--------------|
G|------3-----------------------3-----------3------------------------3-------|
C|3-----------------------------------3--------------------------------------|

D|--0-----0-----0-----0-----0-----0-----0-----0-----0-----0-----0------0-----|
A|----0-----0-----0-----0-----0-----0-----0-----0-----0-----0-----0------0---|
F|------------------2-----------------------------------2--------------------|
D|------------3-----------3-----------------------3-----------3--------------|
G|------2-----------------------2-----------2------------------------2-------|
C|2-----------------------------------2--------------------------------------|

D|--0-----0-----0-----0-----0-----0-----0-----0-----0-----0-----0------0-----|
A|----0-----0-----0-----0-----0-----0-----0-----0-----0-----0-----0------0---|
F|------------------0-----------------------------------0--------------------|
D|------------5-----------5-----------------------7-----------7--------------|
G|------3-----------------------3-----------5------------------------5-------|
C|3-----------------------------------5--------------------------------------|

D|--0-----0-----0-----0-----0-----0-----0-----0-----0-----0-----0------0-----|
A|----0-----0-----0-----0-----0-----0-----0-----0-----0-----0-----0------0---|
F|------------------2-----------------------------------2--------------------|
D|------------3-----------3-----------------------3-----------3--------------|
G|------2-----------------------2-----------2------------------------2-------|
C|2-----------------------------------2--------------------------------------|

D|--0-----0-----0-----0-----0-----0-------|
A|----0-----0-----0-----0-----0-----0-----|
F|------------------2---------------------|
D|------------3-----------3---------------|
G|------2-----------------------2---------|
C|2-----------------------------------2---|

===============================================================================
            
Submit corrections

comments powered by Disqus
↑ Back to top | Kaki King Tabs for Ahuvati. Lyrics for acoustic guitar and electric guitar. 1 Tablatures and chords are parodies/interpretations of the original songs. You may use it for private study, scholarship, research or language learning purposes only