» » »

Kaizers Orchestra, Fra SjåFøR Til Passasjer Tabs (ver.1)

Artists:  A B C D E F G H I J K L M N O P Q R S T U V W X Y Z # 

Fra SjåFøR Til Passasjer Tabs (ver.1)

Kaizers Orchestra Tabs
Rating:
0/5 (0 votes)
Fra SjåFøR Til Passasjer lessons Tabs too difficult? Try these video lessons and learn fast
                -------------------------------------------------------------------------------
Fra Sjåfør Til Passasjer– Kaizers Orchestra
-------------------------------------------------------------------------------

There were no tabs of this on the net, and it being one of my favourite Kaizers songs, I 
had to tab it.
I apologise for any mistakes; this is my first tab.

It’s in a 6/8 rhythm.

Tuning: Standard

e|---------------------------------------------------------------------------|
B|---------------------------------------------------------------------------|
G|---0------------1-------------0-------------------------0------------------|
D|--1-------------------------------1-------------1------------1-------------|
A|-3----------3-------------3------------3----3-------3-------------3--------|
E|---------------------------------------------------------------------------|

e|---------------------------------------------------------------------------|
B|---------------------------------------------------------------------------|
G|---------------0-----------------------0--------------1----------0---------|
D|-----------0-------0---------------0------0---------------0----------0-----|
A|-------2---------------2-------2--------------2---------------2----------2-|
E|---3-----------------------3----------------------3------------------------|

e|---------------------------------------------------------------------------|
B|---------------------------------------------------------------------------|
G|---------------0-------------------0----------0-------------0--------------|
D|-----------0-------0-----------1---------------------------------1---------|
A|-------2---------------2---3-----------3-----------3------------------3----|
E|---3-----------------------------------------------------------------------|

e|-------------------------------------------------------(7)/8~--------------|
B|------------------------------5-------5---5---5---6---8---/9~--------------|
G|--1------------0--------------5-----------5--------------------------------|
D|------1------------1----------5-----------5--------------------------------|
A|----------3-------------3--------------------------------------------------|
E|---------------------------------------------------------------------------|

e|-------------------11-----10------------11------10---------------10--------|
B|--8---9--------8-9------------8----7-8-------------------------------------|
G|-----------------------------------------------------10-----9-10-----------|
D|---------------------------------------------------------------------------|
A|---------------------------------------------------------------------------|
E|---------------------------------------------------------------------------|

e|-----------10----------10-11-11/12-----11-10-11-10-9~~---------------------|
B|---------------------------------------------------------------------------|
G|--10-12-10----------10-----------------------------------------------------|
D|---------------------------------------------------------------------------|
A|---------------------------------------------------------------------------|
E|---------------------------------------------------------------------------|
Bridge
e|---------------------------------------------------------------------------|
B|----4---------4--------------------------4--------------4----------4-------|
G|---1----------------------------(1)----------1---------0----0----------0---|
D|--3---------------------3----3-------3-----------3----1---------1---------1|
A|---------------------------------------------------------------------------|
E|---------------------------------------------------------------------------|


e|---------------------------------------------------------------------------|
B|--3------------1---------------4-------------4---------------3-------------|
G|------0------------0----------1-----1-------------1---------2--------------|
D|-----------1------------1----3-----------3------------3----4-----4---------|
A|----------------------------------------------------------5----------5-----|
E|---------------------------------------------------------------------------|

e|----------------1~----------------------------------------------------------|
B|--1------------0------------------------------------------------------------|
G|--------------0-------------------------------------------------------------|
D|-----4-------0--------------------------------------------------------------|
A|---------5------------------------------------------------------------------|
E|----------------------------------------------------------------------------|

Then comes the chorus. There’s no guitar I can hear in the first half. This is 
after the first half:

e|----------------------------------------------------------------------------|
B|-----------4-------------4-----------4-----------4-----------4-------4------|
G|-------5------------5-----------5-----------5------------5---------------5--|
D|--(5)----------5-----------6-----------5-------------5-----------5----------|
A|----------------------------------------------------------------------------|
E|----------------------------------------------------------------------------|

e|--------------3-------------------------------------4----------3-----------|
B|----------0-------0----------------0-----------0--------0----------0-------|
G|------0---------------0--------------------0----------------0----------0---|
D|--3-----------------------3------------3-----------------------------------|
A|---------------------------------------------------------------------------|
E|---------------------------------------------------------------------------|


e|--------------3------------------------------------------------------------|
B|----------0-------0-------------------4-------------4--------------4-------|
G|------0---------------0-----------5-------------5--------------5-----------|
D|--3-----------------------3-----------------5------------------------------|
A|----------------------------------------------------------3----------------|
E|---------------------------------------------------------------------------|

e|---------------------------------------------------------------(7)/8~------|
B|-----------4-----------4------------4----5--------5---5---6---8---/9~------|
G|-------5-----------5------------5--------5------------5--------------------|
D|---5-----------6------------5------------5------------5--------------------|
A|---------------------------------------------------------------------------|
E|---------------------------------------------------------------------------|

e|-------------------11-----10------------11------10---------------10--------|
B|--8---9--------8-9------------8----7-8-------------------------------------|
G|-----------------------------------------------------10-----9-10-----------|
D|---------------------------------------------------------------------------|
A|---------------------------------------------------------------------------|
E|---------------------------------------------------------------------------|

e|-----------10----------10-11-11/12-----11-10-11-10-9~~---------------------|
B|---------------------------------------------------------------------------|
G|--10-12-10----------10-----------------------------------------------------|
D|---------------------------------------------------------------------------|
A|---------------------------------------------------------------------------|
E|---------------------------------------------------------------------------|


e|--8-10-11---10---8-10-7-------7-8-10----------8--10-----11-10-11-----------|
B|--------------------------------------------8------------------------------|
G|---------------------------------------------------------------------------|
D|---------------------------------------------------------------------------|
A|---------------------------------------------------------------------------|
E|---------------------------------------------------------------------------|

e|--10-8-10-11---------------------------------------------------------------|
B|---------------------------------------------------------------------------|
G|---------------------------------------------------------------------------|
D|---------------------------------------------------------------------------|
A|---------------------------------------------------------------------------|
E|---------------------------------------------------------------------------|

After that, this little riff plays to the end:
(I think this is basically right – it’s hard to hear the lower notes because of the 
on top. This is the best I could do.)

e|---------------8--------|
B|---------8--------8-----|
G|------8-----------------|
D|-----------10-----------|
A|------------------------|
E|---8--------------------|

And in comes this distorted thingy which repeats a few times:

e|--------------------15--15--15-----------------------------------------------|
B|---11b13~-------------13--13—13-11b13~---------------------------------------|
G|-----------------------------------------------------------------------------|
D|-----------------------------------------------------------------------------|
A|-----------------------------------------------------------------------------|
E|-----------------------------------------------------------------------------|

Until this, which plays until the end as well:

e|-----------------------------------------------11-11-11--------11-11-11------|
B|-11b13~-------11b13~-------10b11--------8b9--------9--—8b9-------9--9--9-----|
G|-----------------------------------------------------------------------------|
D|-----------------------------------------------------------------------------|
A|-----------------------------------------------------------------------------|
E|-----------------------------------------------------------------------------|

(I’m not sure if these are bends or slides. I’m pretty sure they’re bends though.)

Which finishes on this.

e|---------------------------------------------------------------------------|
B|--9----8--7--9~------------------------------------------------------------|
G|---------------------------------------------------------------------------|
D|---------------------------------------------------------------------------|
A|---------------------------------------------------------------------------|
E|---------------------------------------------------------------------------|

I hope this is right. =D

| /  slide up
| \  slide down
| h  hammer-on
| p  pull-off
| ~  vibrato
| +  harmonic
| x  Mute note
===============================================================================
            

comments powered by Disqus
↑ Back to top | Kaizers Orchestra Tabs for Fra SjåFøR Til Passasjer. Lyrics for acoustic guitar and electric guitar. Tablatures and chords are parodies/interpretations of the original songs. You may use it for private study, scholarship, research or language learning purposes only