» » »

Kaizers Orchestra, Dekk Bord Tabs (ver.1)

Artists:  A B C D E F G H I J K L M N O P Q R S T U V W X Y Z # 

Dekk Bord Tabs (ver.1)

Kaizers Orchestra Tabs
 Rating:
4/5 (4 votes)
Dekk Bord lessons Tabs too difficult? Try these video lessons and learn fast
1
                Kaizers Orchestra – Dekk Bord



Main Riff:
E--------------------|----------------7-7--|
B--9br-7---7-9-------|--9br-7---7-----7-7--|
G--9br-7---7-9-------|--9br-7---7----------|
D--------9------7-9--|--------9---7h9------|
A--------------------|---------------------|
E--------------------|---------------------|

Outro:
E---------------------------------------------|
B---------------------------------------------|
G-------------7--7--7—7\4--4----4/9—-9--9—7\--|
D—-7/9--9-9---7--7--7—7\4--4----4/9—-9--9—7\--|
A—-7/9--9-9---5--5--5—5\2--2----2/7--7--7—5\--|
E—-5/7--7-7-----------------------------------|

E---------------------------------------------|
B---------------------------------------------|
G--4--4----4/7--7--7—7\4--4----4/9—-9--9—-----|
D—-4--4----4/7--7--7—7\4--4----4/9—-9--9—-----|
A—-2--2----2/5--5--5—5\2--2----2/7--7--7—-----|
E—--------------------------------------------|

E--------7-7—7\-------------------------------|
B----7---7-7—7\-------------------------------|
G—9b-7------------7--7--7---7-----------------|
D-----------------7--7--7---7-----------------|
A-----------------5--5--5---5-----------------|
E---------------------------------------------|
            
Submit corrections

comments powered by Disqus
↑ Back to top | Kaizers Orchestra Tabs for Dekk Bord. Lyrics for acoustic guitar and electric guitar. 1 Tablatures and chords are parodies/interpretations of the original songs. You may use it for private study, scholarship, research or language learning purposes only