>
 >
Christiania

Christiania Guitar Tabs

Kaizers Orchestra - Christiania chords, tabs, tablatures, lyrics

Guitar lessons | Add/correct | Request | Top 50 tabs Artists:  A B C D E F G H I J K L M N O P Q R S T U V W X Y Z 0-9

Christiania Guitar Tabs – Kaizers Orchestra

CD, Sheet music, Poster

Do you like Christiania? Share with your friends now
Tabs
Kaizers Orchestra - Christiania

This is a beautiful song from the norwegian ompaband Kaizers Orchestra's latest album Maestro.
Thanks to andrewbiles for helping out with the tab.

Standard tuning


   0:22
E||---------------------------|-------------------------|---------------------------|-------------------------|
B||---------------------------|-------------------------|---------------------------|-------------------------|
G||--------5------------5-----|--------5--3-------3-----|--------5------------5-----|--------5--3-------3-----|
D||-----5-----5------5-----5--|-----5----------5-----5--|-----5-----5------5-----5--|-----5----------5-----5--|
A||--3-----------2/3----------|--3----------------------|--3-----------2/3----------|--3----------------------|
E||---------------------------|-------------------------|---------------------------|-------------------------|

--------------------------|---------------------------|---------------------------|-------------------------|
--------------------------|---------------------------|---------------------------|-------------------------|
--------5-----------5-----|--------3------------3-----|--------5------------5-----|--------5--3-------3-----|
-----------6-----6-----6--|-----5-----5------5-----5--|-----5-----5------5-----5--|-----5----------5-----5--|
-----6--------6-----------|--6-----------4h5----------|--3-----------2/3----------|--3----------------------|
--4-----------------------|---------------------------|---------------------------|-------------------------|


0:39 To tusen grader...
--------------------------|--------------------------|---------------------------|-------------------------|
--------------------------|--------------------------|---------------------------|-------------------------|
--------5-----------5-----|--------5-----------5-----|--------5------------5-----|--------5--3-------3-----|
-----5-----5-----5-----5--|-----5-----5-----5-----5--|-----5-----5------5-----5--|-----5----------5-----5--|
--3-----------3-----------|--3-----------3-----------|--3-----------2/3----------|--3----------------------|
--------------------------|--------------------------|---------------------------|-------------------------|

--------------------------|--------------------------|--------------------------|--------------------------|
--------------------------|--------------------------|--------------------------|--------------------------|
--------5-----------5-----|--------3-----------3-----|--------5-----------5-----|--------5-----------5-----|
-----------6-----6-----6--|-----5-----5-----5-----5--|-----5-----5-----5-----5--|-----5-----5-----5-----5--|
-----6--------6-----------|--6-----------5-----------|--3-----------3-----------|--3-----------3-----------|
--4-----------------------|--------------------------|--------------------------|--------------------------|


0:57
---------------------------|-------------------------|--------------------------|-------------------------|
---------4-----------4-----|--------4--3-------3-----|--------4-----------4-----|--------4--3-------3-----|
---------5-----------5-----|--------5--3-------3-----|--------5-----------5-----|--------5--3-------3-----|
------5-----5-----5-----5--|-----5----------5-----5--|-----5-----5-----5-----5--|-----5----------5-----5--|
--2/3----------3-----------|--3----------------------|--3-----------3-----------|--3----------------------|
---------------------------|-------------------------|--------------------------|-------------------------|

--------------------------|----------------------------|--------------------------|-------------------------|
--------4-----------4-----|---------4------------4-----|--------4-----------4-----|--------4--3-------3-----|
--------5-----------5-----|---------3------------3-----|--------5-----------5-----|--------5--3-------3-----|
-----------6-----6-----6--|------5-----5------5-----5--|-----5-----5-----5-----5--|-----5----------5-----5--|
-----6--------6-----------|--5/6----------4/5----------|--3-----------3-----------|--3----------------------|
--4-----------------------|----------------------------|--------------------------|-------------------------|


1:14 Millimeter presisjon...
--------------------------|--------------------------|--------------------------|-------------------------|
--------------------------|--------------------------|--------------------------|-------------------------|
--------5-----------5-----|--------5-----------5-----|--------5-----------5-----|--------5--3-------3-----|
-----5-----5-----5-----5--|-----5-----5-----5-----5--|-----5-----5-----5-----5--|-----5----------5-----5--|
--3-----------3-----------|--3-----------3-----------|--3-----------3-----------|--3----------------------|
--------------------------|--------------------------|--------------------------|-------------------------|

--------------------------|--------------------------|--------------------------|-------------------------|
--------------------------|--------------------------|--------------------------|-------------------------|
--------5-----------5-----|--------3-----------3-----|--------5-----------5-----|--------5--3-------3-----|
-----------6-----6-----6--|-----5-----5-----5-----5--|-----5-----5-----5-----5--|-----5----------5-----5--|
-----6--------6-----------|--6-----------5-----------|--3-----------3-----------|--3----------------------|
--4-----------------------|--------------------------|--------------------------|-------------------------|


                                          1:36  du trur du ser...
-------------------|----------|----------|--------------------------|--------------------------|
--4----------------|----------|----------|--------------------------|--------------------------|
-------------------|----------|----------|--------5-----------5-----|--------3-----------3-----|
-------------------|----------|----------|-----------6-----6-----6--|-----5-----5-----5-----5--|
-------------------|----------|----------|-----6--------6-----------|--6-----------5-----------|
-------------------|----------|----------|--4-----------------------|--------------------------|

--------------------------|-------------------------|--------------------------|--------------------------|
--------------------------|-------------------------|--------------------------|--------------------------|
--------5-----------5-----|--------5--3-------3-----|--------5-----------5-----|--------3-----------3-----|
-----5-----5-----5-----5--|-----5----------5-----5--|-----------6-----6-----6--|-----5-----5-----5-----5--|
--3-----------3-----------|--3----------------------|-----6--------6-----------|--6-----------5-----------|
--------------------------|-------------------------|--4-----------------------|--------------------------|

--------------------------|-------------------|--------------------------|-------------------------|
--------------------------|-----4-------------|--------4-----------4-----|--------4--3-------3-----|
--------5-----------5-----|----5--------------|--------5-----------5-----|--------5--3-------3-----|
-----5-----5-----5-----5--|---5---------------|-----5-----5-----5-----5--|-----5----------5-----5--|
--3-----------3-----------|--3----------------|--3-----------3-----------|--3----------------------|
--------------------------|-------------------|--------------------------|-------------------------|

--------------------------|-------------------------|--------------------------|--------------------------|
--------4-----------4-----|--------4--3-------3-----|--------4-----------4-----|--------4-----------4-----|
--------5-----------5-----|--------5--3-------3-----|--------5-----------5-----|--------3-----------3-----|
-----5-----5-----5-----5--|-----5----------5-----5--|-----------6-----6-----6--|-----5-----5-----5-----5--|
--3-----------3-----------|--3----------------------|-----6--------6-----------|--6-----------5-----------|
--------------------------|-------------------------|--4-----------------------|--------------------------|

--------------------------|-------------------------|-------------------|------------------|------------------|
--------4-----------4-----|--------4--3-------3-----|-----4-------------|------------------|------------------|
--------5-----------5-----|--------5--3-------3-----|----5--------------|------------------|------------------|
-----5-----5-----5-----5--|-----5----------5-----5--|---5---------------|------------------|------------------|
--3-----------3-----------|--3----------------------|--3----------------|------------------|------------------|
--------------------------|-------------------------|-------------------|------------------|------------------|


                   2:33  du trur du ser...
------------------|--------------------------|--------------------------|--------------------------|
------------------|--------------------------|--------------------------|--------------------------|
------------------|--------5-----------5-----|--------3-----------3-----|--------5-----------5-----|
------------------|-----------6-----6-----6--|-----5-----5-----5-----5--|-----5-----5-----5-----5--|
------------------|-----6--------6-----------|--6-----------5-----------|--3-----------3-----------|
------------------|--4-----------------------|--------------------------|--------------------------|

-------------------------|--------------------------|--------------------------|--------------------------|
-------------------------|--------------------------|--------------------------|--------------------------|
--------5--3-------3-----|--------5-----------5-----|--------3-----------3-----|--------5-----------5-----|
-----5----------5-----5--|-----------6-----6-----6--|-----5-----5-----5-----5--|-----5-----5-----5-----5--|
--3----------------------|-----6--------6-----------|--6-----------5-----------|--3-----------3-----------|
-------------------------|--4-----------------------|--------------------------|--------------------------|

--------------------------|--------------------------|--------------------------|--------------------------|
--------------------------|--------------------------|--------------------------|--------------------------|
--------5-----------5-----|--------5-----------5-----|--------3-----------3-----|--------5-----------5-----|
-----5-----5-----5-----5--|-----------6-----6-----6--|-----5-----5-----5-----5--|-----5-----5-----5-----5--|
--3-----------3-----------|-----6--------6-----------|--6-----------5-----------|--3-----------3-----------|
--------------------------|--4-----------------------|--------------------------|--------------------------|

-------------------------|--------------------------|--------------------------|--------------------------|
-------------------------|--------------------------|--------------------------|--------------------------|
--------5--3-------3-----|--------5-----------5-----|--------3-----------3-----|--------5-----------5-----|
-----5----------5-----5--|-----------6-----6-----6--|-----5-----5-----5-----5--|-----5-----5-----5-----5--|
--3----------------------|-----6--------6-----------|--6-----------5-----------|--3-----------3-----------|
-------------------------|--4-----------------------|--------------------------|--------------------------|

--------------------------|--------------------------|--------------------------|--------------------------|
--------------------------|--------------------------|--------------------------|--------------------------|
--------5-----------5-----|--------5-----------5-----|--------3-----------3-----|--------5-----------5-----|
-----5-----5-----5-----5--|-----------6-----6-----6--|-----5-----5-----5-----5--|-----5-----5-----5-----5--|
--3-----------3-----------|-----6--------6-----------|--6-----------5-----------|--3-----------3-----------|
--------------------------|--4-----------------------|--------------------------|--------------------------|

-------------------------||
-------------------------||
--------5--3-------3-----||
-----5----------5-----5--||
--3----------------------||
-------------------------||





Comments


Popular Kaizers Orchestra tabs & chords
Bak Et Hallelujah Chords
Hjerteknuser 2 Chords
170 1 Tabs
Fra SjåFøR Til Passasjer Tabs
Ompa Til Du DøR Tabs
Rullett Intro Tabs
170 Ukulele
Bris Ukulele
Drm Videre Violeta Ukulele
Tokyo Ice Til Clementine Ukulele


Song lyrics



↑ Back to top | Tablatures and chords are parodies/interpretations of the original songs. You may use it for private study, scholarship, research or language learning purposes only
© 2014 AZChords.com Contact us | Privacy policy | DMCA | Add/correct tabs | Request tabs | Top 50 tabs