» » »

Kaizers Orchestra, Bak Et Halleluja Bass tabs (ver.1)

Artists:  A B C D E F G H I J K L M N O P Q R S T U V W X Y Z # 

Bak Et Halleluja Bass tabs (ver.1)

Kaizers Orchestra Tabs
 Rating:
4.3/5 (6 votes)
Bak Et Halleluja lessons Tabs too difficult? Try these video lessons and learn fast
                I couldn't find any bass tabs, so I decided to tab it really fast :P Ps. it's the 
first time I've submitted something here, woah!

The bass comes in at 0:33 or something (if you can't hear it)

................................[------1-------].[---2-----|
G|:---------|---------|---------|-------------:| |---------|
D|:-5-----8-|-5-----5-|-3-----3-|-5---5-0-2-4-:| |-5---5---|
A|:---5-6---|---5-6---|-----3---|---5---------:| |---5-----|
E|:---------|---------|---5-----|-------------:| |---------|
...................................first time...second time

G|---------|---------|----------|---------|
D|-5-----8-|-5-----5-|-8--------|-----5---|
A|---5-6---|---5-6---|---5--8---|---6-----|
E|---------|---------|--------6-|-8-----8-|

G|---------|---------|---------|---------|
D|---5-8---|-7-----4-|-5-----8-|-5-----8-|
A|-6-----6-|---6-5---|---5-6---|---5-6---|
E|---------|---------|---------|---------|

G|-----------|---------|---------|---------|---------|---------|---------|
D|-5---5-7-8-|-7-----8-|-5-----8-|-5-----8-|-5-----8-|-5-----8-|-5-------|
A|---5-------|---6-5---|---5-6---|---5-6---|---5-6---|---5-6---|---------|
E|-----------|---------|---------|---------|---------|---------|---------|
.......................the last line.....................................

Pause! I dunno if it's contrabass or something, but some of the notes are a little hard to tab xD

When the bass starts again, just repeat everything like it was first time, EXCEPT the 
last line, play this instead:

G|:-----------|B|---------|---------|---------:|
D|:-5---5-7-8-|R|-7-----8-|-5-----8-|-5-----8-:|
A|:---6-------|E|---6-5---|---5-6---|---5-6---:|
E|:-----------|A|---------|---------|---------:|
              |K|                         

G|-----------|
D|-5---5-7-8-|
A|---6-------|
E|-----------|

The End. Maybe not 100% right, but sounds good enough for me. Try it out!
            
Submit corrections

comments powered by Disqus
↑ Back to top | Kaizers Orchestra Bass for Bak Et Halleluja. Lyrics for acoustic guitar and electric guitar. Tablatures and chords are parodies/interpretations of the original songs. You may use it for private study, scholarship, research or language learning purposes only