» » »

You Can Have It All Tabs (ver.1)

Artists:  A B C D E F G H I J K L M N O P Q R S T U V W X Y Z # 

You Can Have It All Tabs (ver.1)

Kaiser Chiefs
Rating:
0/5 (0 votes)

Hard to play? Try these video lessons and learn fast.
                Kaiser Chiefs
Employment (2005)
Tuning: Standard
   
e|---------------------------------------------------------------|
B|---------------------------------------------------------------|
G|-3-3-3-3-3-2-0-2-3--3-3-3-3-3-2-0-2-3--------------------------|
D|--------------------------------------3------------------------|
A|---------------------------------------------------------------|
E|---------------------------------------------------------------|

e|---------------------------------------------------------------|
B|---------------------------------------------------------------|
G|-0-2-0---0---0---0-2-0---0-3-5---------------------------------|
D|-------3---3---3-------3---------------------------------------|
A|---------------------------------------------------------------|
E|---------------------------------------------------------------|

e|---------------------------------------------------------------|
B|---------------------------------------------------------------|
G|-7-7-7-7-7-5-3-5-7--7-7-7-7-7-5-3-5-7--------------------------|
D|---------------------------------------------------------------|
A|---------------------------------------------------------------|
E|---------------------------------------------------------------|

e|---------------------------------------------------------------|
B|---------------------------------------------------------------|
G|-0-2-0---0---0---0-2-0---0-3-5---------------------------------|
D|-------3---3---3-------3---------------------------------------|
A|---------------------------------------------------------------|
E|---------------------------------------------------------------|

Thats It!
Enjoy!
All comments will be appreiciated!
            
Hard to play? Try these video lessons and learn fast. | Correct




comments powered by Disqus
↑ Back to top | Tablatures and chords are parodies/interpretations of the original songs. You may use it for private study, scholarship, research or language learning purposes only