» » »

You Can Have It All Tabs (ver.3)

Artists:  A B C D E F G H I J K L M N O P Q R S T U V W X Y Z # 

You Can Have It All Tabs (ver.3)

Kaiser Chiefs
Rating:
0/5 (0 votes)

Hard to play? Try these video lessons and learn fast.
                The chords in the other tab were right but it was
missing the outro riffs and a little riff in the
last chorus that renders the song incomplete when
left out because it sounds so good.

Chorus:

D#  D  C  Bb
D#  D  C  C  F  F

Verse:

C  C  C  C
F  F  F  F
C  C  C  C
F  F  F  F

Prechorus:

C  C  F  F
C  C  F  F

Guitar Solo:

e|----------------------|-----------------------|---------------------|
B|----------------------|-----------------------|---------------------|
G|-3-3-3-3-3-2--0--2--3-|--3-3-3-3-3-2--0--2--3-|----0-2--0---0---0---|
D|----------------------|-----------------------|-3---------3---3---3-|
A|----------------------|-----------------------|---------------------|
E|----------------------|-----------------------|---------------------|

e|------------------|----------------------|----------------------|
B|------------------|----------------------|----------------------|
G|-0-2--0---0-2-3/5-|-7-7-7-7-7-5--3--5--7-|-7-7-7-7-7-5--3--5--7-|
D|--------3---------|----------------------|----------------------|
A|------------------|----------------------|----------------------|
E|------------------|----------------------|----------------------|

e|---------------------|------------------|
B|---------------------|------------------|
G|----0-2--0---0---0---|-0-2--0---0-2-3/5-|
D|-3---------3---3---3-|--------3---------|
A|---------------------|------------------|
E|---------------------|------------------|

Outro:

e|-----------------------------|----------------------|
B|-8---------8-----------------|-8---------8----------|
G|---7--8/10------8-7-5----3-2-|---7--8/10------8-7-5-|
D|-----------------------------|----------------------|
A|-----------------------------|----------------------|
E|-----------------------------|----------------------|

e|---------------------|
B|8---------8----------|
G|--7--8/10------8-7-5-|
D|---------------------|
A|---------------------|
E|---------------------|

Order:
Chorus
Verse
Prechorus
Verse
Prechorus
Chorus
Solo
Prechorus
Chorus*
Outro

*This chorus plays
D#  D  C  Bb
D#  D  C  Bb
D#  D  C  Bb
D#  D  C  C  F  F
            
Hard to play? Try these video lessons and learn fast. | Correct




comments powered by Disqus
↑ Back to top | Tablatures and chords are parodies/interpretations of the original songs. You may use it for private study, scholarship, research or language learning purposes only