>
 >
You Can Have It All

You Can Have It All Guitar Tabs

Kaiser Chiefs - You Can Have It All chords, tabs, tablatures, lyrics

Guitar lessons | Add/correct | Request | Top 50 tabs Artists:  A B C D E F G H I J K L M N O P Q R S T U V W X Y Z 0-9

You Can Have It All Guitar Tabs – Kaiser Chiefs

CD, Sheet music, Poster

Do you like You Can Have It All? Share with your friends now
Bass TabsChordsTabsTabs v2Tabs v3Ukulele
Band: Kaiser Cheifs

By Dan Taylor

This is my 1st tab


Tuning:EADGBe


Intro:

Eb                          Bbmaj7/D

|----------6----------------|------------5---------------|
|---8---8--8-------8---8--x-|---6----6---6-----6---x--x--|
|---8---8--8-------8---8--x-|---7----7---7-----7---x--x--|
|---8---8----------8---8--x-|---7----7---------7---x--x--|
|---6---6--------------8--x-|---5----5---------5---x--x--|
|---------------------------|----------------------------|

Cm

|----------3--------------3-|------------3---------3--1--|
|---4---4--4-------4---4--4-|--------4---4-----4---4--1--|
|---5---5--5-------5---5--5-|--------5---5-----5---5-----|
|---5---5----------5---5----|--------5---------5---5-----|
|---3---3----------3---3----|--------3-------------3-----|
|---------------------------|----------------------------|

F

|---1------1--1------1------|---1-----1-------1---1------|
|---1------1--1------1------|---1-----1-------1---1------|
|---2------2--2------2------|---2-----2-------2---2------|
|---3------3--3------3------|---3-----3-------3---3------|
|---3----------------3------|---3------------------------|
|---1----------------1------|---1------------------------|



Verse:

Cm
               I tell you what its going to be like
|---3----3---|
|---4----4---|
|---5----5---|
|---5----5---|
|---3----3---|
|------------|

              I saw you on the bus and that was
|---3----3----3--|----------------3-------------|
|---4----4----4--|--------------------4---------|
|---5----5----5--|------------------------5-----|
|---5----5----5--|------------------------------|
|---3----3----3--|------------------------------|
|----------------|------------------------------|

F

  That. There's more to this than passing by,

|-1-----x---1------1------|-----1-------------|
|-1-----x---1------1------|---------1---------|
|-2-----x---2------2------|-------------2-----|
|-3-----x---3------2------|-------------------|
|-3-----x---3------3------|-------------------|
|-1-----x---1------1------|-------------------|


There's more to this meets the eye

|---------------------1-------------|
|-------------------------1---------|
|-----------------------------2-----|
|-----------------------------------|
|-----------------------------------|
|-----------------------------------|


Cm

                I tell you what it's going to be like                

|---3----3------3--|--------------------------------|
|---4----4------4--|--------------------------------|
|---5----5------5--|--------------------------------|
|---5----5------5--|--------------------------------|
|---3----3------3--|--------------------------------|
|------------------|--------------------------------|


Etc..


Bridge:

Cm

It's not my fault, I dont Care I dont rerget a single thing.

|---3--3--3--3---3---3--3--3------|
|---4--4--4--4---4---4--4--4------|
|---5--5--5--5---5---5--5--5------|
|---5--5--5--5---5---5--5--5------|
|---3--3--3--3-------3--3--3------|
|---------------------------------|

F

|---1--1--1--1------1--1--1-------|
|---1--1--1--1------1--1--1-------|
|---2--2--2--2------2--2--2-------|
|---3--3--3--3------3--3--3-------|
|---3--3--3--3------3--3--3-------|
|---1--1--3--1------1--1--1-------|

|---1--1--1--------1--1--1-------|
|---1--1--1--------1--1--1-------|
|---2--2--2--------2--2--2-------|
|---3--3--3--------3--3--3-------|
|---3--3--3--------3--3--3-------|
|---1--1--3--------1--1--1-------|

Cm

It's not my fault, I dont Care.I

|---3--3--3--3---------3--3--3--3------|
|---4--4--4--4---------4--4--4--4------|
|---5--5--5--5---------5--5--5--5------|
|---5--5--5--5---------5--5--5--5------|
|---3--3--3--3---------3--3--3--3------|
|--------------------------------------|



 dont rerget a single thing-g-g-g

|-----3--3--3--3---------3--3--3--3------|
|-----4--4--4--4---------4--4--4--4------|
|-----5--5--5--5---------5--5--5--5------|
|-----5--5--5--5---------5--5--5--5------|
|-----3--3--3--3---------3--3--3--3------|
|----------------------------------------|


|---1--1--1--1------1--1--1-------|
|---1--1--1--1------1--1--1-------|
|---2--2--2--2------2--2--2-------|
|---3--3--3--3------3--3--3-------|
|---3--3--3--3------3--3--3-------|
|---1--1--3--1------1--1--1-------|

|---1--1--1--------1--1--1-------|
|---1--1--1--------1--1--1-------|
|---2--2--2--------2--2--2-------|
|---3--3--3--------3--3--3-------|
|---3--3--3--------3--3--3-------|
|---1--1--3--------1--1--1-------|


Verse
Bridge


Chorus:

Eb                          Bbmaj7/D

You can have it all   if    that's alright.   and i would

|----------6----------------|------------5----------------|
|---8---8--8-------8---8--x-|--------6---6----6------x--x-|
|---8---8--8-------8---8--x-|---7----7---7----7---7--x--x-|
|---8---8----------8---8--x-|---7----7--------7---5--x--x-|
|---6---6--------------8--x-|---5----5--------5---5--x--x-|
|---------------------------|-----------------------------|

Cm

Give it all to you,                    cos'
|----------3---------------------------------------------|
|-------4--4-------------------------4-------------------|
|---5---5--5-------------------------5---5-------x---x---|
|---5---5--5-------------------------5---5-------x---x---|
|---3---3----------------------------3---5-------x---x---|
|--------------------------------------------------------|




Bb                          Eb


you'd never fight me for     You can have it all   if
|---------------------------|-----------6----------------|
|-------------4---3---------|-------8---8---8------------|
|---3-------------------3---|---8---8---8---8---8--x--x--|
|---3-----------------------|---8---8---8---8---8--x--x--|
|---1-----------------------|---6---6-------6---6--x--x--|
|---------------------------|----------------------------|



Bbmaj/D

 that's alright and i would
|------------5----------------|
|--------6---6----6------x--x-|
|---7----7---7----7---7--x--x-|
|---7----7--------7---5--x--x-|
|---5----5--------5---5--x--x-|
|-----------------------------|


Cm

 give it all to you______                    if its all-
|----------3---3--------------3-|------------3---------3----|
|----------4---4-------4------4-|--------4---4-----4---4----|
|---5------5---5-------5------5-|--------5---5-----5---5----|
|---5------5-----------5--------|--------5---------5---5----|
|---3------3-----------3--------|--------3-------------3----|
|-------------------------------|---------------------------|

F

right?_______________ Oh    oh      oh
|-1-----1----1----1--|-1----1------1--1-|
|-1-----1----1----1--|-1----1------1--1-|
|-2-----2----2----2--|-2----2------2--2-|
|-3-----3----3----3--|-3----3------3--3-|
|-3---------------3--|-3----------------|
|-1---------------1--|-1----------------|



Solo

Cm

|---------------------------|-----------------------------------------|
|---------------------------|-----------------------------------------|
|---------------------------|-----------------------------------------|
|--------8--8--8--8--8--8---|---7----5----7-----8---------------------|
|---------------------------|-----------------------------------------|
|---------------------------|-----------------------------------------|

|---------------------------|-----------------------------------------|
|---------------------------|-----------------------------------------|
|---------------------------|-----------------------------------------|
|--------8--8--8--8--8--8---|---7----5----7-----8/3-----5--7-----5----|
|---------------------------|-----------------------------------------|
|---------------------------|-----------------------------------------|

F

|-----------------------------------------|---------------------|
|-----------------------------------------|---------------------|
|-----------------------------------------|---------------------|
|---3/5----7-----5----3-----5--3-----5----|---3----5/7-------5--|
|-----------------------------------------|---------------------|
|-----------------------------------------|---------------------|

|----------------------|
|----------------------|
|-----------------5----|
|---3----5/8-----------|
|----------------------|
|----------------------|


Cm

|---------------------------|----------------------|
|---------------------------|----------------------|
|---------------------------|----------------------|
|--------8--8--8--8--8--8---|---7----5----7-----8--|
|---------------------------|----------------------|
|---------------------------|----------------------|
                                                F
|---------------------------|--------------------------------------|
|---------------------------|--------------------------------------|
|---------------------------|--------------------------------------|
|--------8--8--8--8--8--8---|---7----5----7-----8/3/5-----7-----5--|
|---------------------------|--------------------------------------|
|---------------------------|--------------------------------------|


|---------------------------|--------------------------------------|
|---------------------------|--------------------------------------|
|---------------------------|--------------------------------------|
|--------3-----5--3------5--|---3------5/7--------5----------------|
|---------------------------|--------------------------------------|
|---------------------------|--------------------------------------|

|---------------------------|
|---------------------------|
|----------------5----------|
|--3----5/8-----------------|
|---------------------------|
|---------------------------|


Chorus

Outro is like Cm and F listen to the song to see!





Comments


Popular Kaiser Chiefs tabs & chords
Angry Mob Bass Tabs
Na Na Na Na Na Bass Tabs
Ruby 5 Bass Tabs
Spanish Metal Chords
Angry Mob Tabs
I Predict A Riot 2 Tabs
Little Shocks 2 Tabs
Love's Not A Competition (But I'm Winning) 1 Tabs
Problem Solve Tabs
You Can Have It All Ukulele


Song lyrics



↑ Back to top | Tablatures and chords are parodies/interpretations of the original songs. You may use it for private study, scholarship, research or language learning purposes only
© 2014 AZChords.com Contact us | Privacy policy | DMCA | Add/correct tabs | Request tabs | Top 50 tabs