» » »

What Did I Ever Give You? Tabs (ver.1)

Artists:  A B C D E F G H I J K L M N O P Q R S T U V W X Y Z # 

What Did I Ever Give You? Tabs (ver.1)

Kaiser Chiefs
Rating:
0/5 (0 votes)

Hard to play? Try these video lessons and learn fast.
                Kaiser Chiefs
Employment (2005)
Standard Tuning
 
No one had tabbed this so i worked it out and it is close

in the verse you play these chords at the end of each bar
   F5 octave   (x8)
e|---------------------------------------------------------------|
B|---------------------------------------------------------------|
G|-12-12-x-------------------------------------------------------|
D|--x--x-x-------------------------------------------------------|
A|-10-10-x-------------------------------------------------------|
E|---------------------------------------------------------------|

Pre-Chorus- Just play F5 octave (x8x10xx) all through.

Chorus
   C5                       Bb5                  (x2)
e|---------------------------------------------------------------|
B|---------------------------------------------------------------|
G|---------------------------------------------------------------|
D|-10-10-10-10-10-10-10-10--8-8-8-8-8-8-8-8----------------------|
A|-10-10-10-10-10-10-10-10--8-8-8-8-8-8-8-8----------------------|
E|--8--8--8--8--8--8--8--8--6-6-6-6-6-6-6-6----------------------|

Bridge 
  |                     |- (x2)  |                |-(x2)
e|---------------------------------------------------------------|
B|---------------------------------------------------------------|
G|---------------------------------------------------------------|
D|---------------------------------------------------------------|
A|---------------------------------------------------------------|
E|-3/10-10-10--3/10-10-10---------1/8-8-8--1/8-8-8---------------|

Chorus 2
   D5                       C5                        (x4)
e|---------------------------------------------------------------|
B|---------------------------------------------------------------|
G|---------------------------------------------------------------|
D|-12-12-12-12-12-12-12-12--10-10-10-10-10-10-10-10--------------|
A|-12-12-12-12-12-12-12-12--10-10-10-10-10-10-10-10--------------|
E|-10-10-10-10-10-10-10-10---8--8--8--8--8--8--8--8--------------|

Order

Intro (Keyboard and drums only)
Verse 1
Pre-Chorus
Verse 2
Pre-Chorus
Chorus 1
Bass Solo
Verse 3
Pre-Chorus
Chorus 1
Bridge
Chorus 2
End on D5

So, thats it please leave good or bad comments in the comment box
            
Hard to play? Try these video lessons and learn fast. | Correct




comments powered by Disqus
↑ Back to top | Tablatures and chords are parodies/interpretations of the original songs. You may use it for private study, scholarship, research or language learning purposes only